Home » J » John Mellencamp »

John Mellencamp - Hurts So Good Tabs

Artists:  A B C D E F G H I J K L M N O P Q R S T U V W X Y Z # 

Hurts So Good Tabs

(ver. 1) Click to play this song!
John Mellencamp
[Intro]
e|---------------------------------|-------------------------------------|
B|---------------------------------|-------------------------------------|
G|---2--2--2--0----------------0---|---2--2--2--0----------------0-------|
D|---------------2b--0---0--2------|---------------2b--0---0--2----------|
A|---------------------------------|-------------------------------------|
E|---------------------------------|-------------------------------h3----|

[Verse 1]
     G                   D                    Em                 C
     When  I  was  a     young boy       Said put away all those young boy ways
e|---3-PM-3--3--3--3--3--2----3p2---------|---0--PM--0--0--0--0--0--PM--0--0--0--0---|
B|---0----0--0--0--0--0--3--3-----3-------|---0------0--0--0--0--1------1--1--1--1---|
G|---0----0--0--0--0--0--2----------2-----|---0------0--0--0--0--0------0--0--0--0---|
D|---0----0--0--0--0--0--0------------0---|---2------2--2--2--2--2------2--2--2--2---|
A|---2----2--2--2--2--2-------------------|---2------2--2--2--2--3------3--3--3--3---|
E|---3----3--3--3--3--3-------------------|---0------0--0--0--0----------------------|

     G                   D                    Em                 C
   Now that I'm getting  older so much older  I long all those   young boy days
e|---3-PM-3--3--3--3--3--2----3p2---------|---0--PM--0--0--0--0--0--PM--0--0--0--0---|
B|---0----0--0--0--0--0--3--3-----3-------|---0------0--0--0--0--1------1--1--1--1---|
G|---0----0--0--0--0--0--2----------2-----|---0------0--0--0--0--0------0--0--0--0---|
D|---0----0--0--0--0--0--0------------0---|---2------2--2--2--2--2------2--2--2--2---|
A|---2----2--2--2--2--2-------------------|---2------2--2--2--2--3------3--3--3--3---|
E|---3----3--3--3--3--3-------------------|---0------0--0--0--0----------------------|

     G                  D                     G                  D
     With a girl like   you                   With a girl like   you
e|---3--PM--3--3--3--3--2-PM-X-X--X-X-X---|---3--PM--3--3--3--3--2----3p2----------|
B|---0------0--0--0--0--3----X-x--x-x-x---|---0------0--0--0--0--3--3-----3--------|
G|---0------0--0--0--0--2----X-x--x-x-x---|---0------0--0--0--0--2----------2------|
D|---0------0--0--0--0--0----X-x--x-x-x---|---0------0--0--0--0--0------------0----|
A|---2------2--2--2--2--------------------|---2------2--2--2--2--------------------|
E|---3------3--3--3--3--------------------|---3------3--3--3--3--------------------|

     Em                   C
     Lord knows there are things we can do baby
e|---0--PM--0--0--0--0----0--PM--0--0--0--0-------|
B|---0------0--0--0--0----1------1--1--1--1-------|
G|---0------0--0--0--0----0------0--0--0--0-------|
D|---2------2--2--2--2----2------2--2--2--2-------|
A|---2------2--2--2--2----3------3--3--3--3-------|
E|---0------0--0--0--0----------------------------|

     D                            D
     Just  Me   and   You         Come on and make it a
e|---2--PM--2--2--PM--2--2----|---2--2--2--2--2--2--2-----|
B|---3------3--3------3--3----|---3--3--3--3--3--3--3-----|
G|---2------2--2------2--2----|---2--2--2--2--2--2--2-----|
D|---0------0--0------0--0----|---0--0--0--0--0--0--0-----|
A|----------------------------|---------------------------|
E|----------------------------|---------------------------|

[Chorus]  
     G                   D                    G                  D
     Hurt      so        good               Come on baby,make it hurt so good
e|---3-PM-3--3--3--3--3--2----3p2---------|---3--PM--3--3--3--3--2--PM--2--2--2--2---|
B|---0----0--0--0--0--0--3--3-----3-------|---0------0--0--0--0--3------3--3--3--3---|
G|---0----0--0--0--0--0--2----------2-----|---0------0--0--0--0--2------2--2--2--2---|
D|---0----0--0--0--0--0--0------------0---|---0------0--0--0--0--0------0--0--0--0---|
A|---2----2--2--2--2--2-------------------|---2------2--2--2--2----------------------|
E|---3----3--3--3--3--3-------------------|---3------3--3--3--3----------------------|

     C         Em         C  
     Sometimes love don't feel like it should
e|---0--0--PM--0--0--0----0--0--PM--0--0--0-----|
B|---1--1------0--0--0----1--1------1--1--1-----|
G|---0--0------0--0--0----0--0------0--0--0-----|
D|---2--2------2--2--2----2--2------2--2--2-----|
A|---3--3------2--2--2----3--3------3--3--3-----|
E|-------------0--0--0--------------------------|

     C            D      D           G  
     You make it         Hurt   so   good
e|---0--0--0--PM--2--PM--2--2--2--2--3-------|
B|---1--1--1------3------3--3--3--3--0-------|
G|---0--0--0------2------2--3--2--2--0-------|
D|---2--2--2------0------0--0--0--0--0-------|
A|---3--3--3-------------------------2-------|
E|-----------------------------------3-------|

e|---------------------------------|------------------------------------|
B|---------------------------------|------------------------------------|
G|---2--2--2--0----------------0---|---2--2--2--0----------------0------|
D|---------------2b--0---0--2------|---------------2b--0---0--2---------|
A|---------------------------------|------------------------------------|
E|---------------------------------|-------------------------------h3---|

[Verse 2]
     G                   D                    Em                 C
    You don't have to be so exciting just trying to give myself a little bit of fun, yeah
e|---3-PM-3--3--3--3--3--2----3p2---------|---0--PM--0--0--0--0--0--PM--0--0--0--0---|
B|---0----0--0--0--0--0--3--3-----3-------|---0------0--0--0--0--1------1--1--1--1---|
G|---0----0--0--0--0--0--2----------2-----|---0------0--0--0--0--0------0--0--0--0---|
D|---0----0--0--0--0--0--0------------0---|---2------2--2--2--2--2------2--2--2--2---|
A|---2----2--2--2--2--2-------------------|---2------2--2--2--2--3------3--3--3--3---|
E|---3----3--3--3--3--3-------------------|---0------0--0--0--0----------------------|

     G                   D                    Em                 C
     You always look so inviting              You aint as green as your are young
e|---3-PM-3--3--3--3--3--2----3p2---------|---0--PM--0--0--0--0--0--PM--0--0--0--0---|
B|---0----0--0--0--0--0--3--3-----3-------|---0------0--0--0--0--1------1--1--1--1---|
G|---0----0--0--0--0--0--2----------2-----|---0------0--0--0--0--0------0--0--0--0---|
D|---0----0--0--0--0--0--0------------0---|---2------2--2--2--2--2------2--2--2--2---|
A|---2----2--2--2--2--2-------------------|---2------2--2--2--2--3------3--3--3--3---|
E|---3----3--3--3--3--3-------------------|---0------0--0--0--0----------------------|

     G                  D                     G                  D
     Hey baby it's      you              Come on girl now it's   you
e|---3--PM--3--3--3--3--2-PM-X-X--X-X-X---|---3--PM--3--3--3--3--2----3p2----------|
B|---0------0--0--0--0--3----X-x--x-x-x---|---0------0--0--0--0--3--3-----3--------|
G|---0------0--0--0--0--2----X-x--x-x-x---|---0------0--0--0--0--2----------2------|
D|---0------0--0--0--0--0----X-x--x-x-x---|---0------0--0--0--0--0------------0----|
A|---2------2--2--2--2--------------------|---2------2--2--2--2--------------------|
E|---3------3--3--3--3--------------------|---3------3--3--3--3--------------------|

     Em                   C
    Sink your teeth right through my bones, baby
e|---0--PM--0--0--0--0----0--PM--0--0--0--0-------|
B|---0------0--0--0--0----1------1--1--1--1-------|
G|---0------0--0--0--0----0------0--0--0--0-------|
D|---2------2--2--2--2----2------2--2--2--2-------|
A|---2------2--2--2--2----3------3--3--3--3-------|
E|---0------0--0--0--0----------------------------|

     D                            D
     Let's see what we can do     Come on and make it a
e|---2--PM--2--2--PM--2--2----|---2--2--2--2--2--2--2-----|
B|---3------3--3------3--3----|---3--3--3--3--3--3--3-----|
G|---2------2--2------2--2----|---2--2--2--2--2--2--2-----|
D|---0------0--0------0--0----|---0--0--0--0--0--0--0-----|
A|----------------------------|---------------------------|
E|----------------------------|---------------------------|

[Chorus]  
     G                   D                    G                  D
     Hurt      so        good               Come on baby,make it hurt so good
e|---3-PM-3--3--3--3--3--2----3p2---------|---3--PM--3--3--3--3--2--PM--2--2--2--2---|
B|---0----0--0--0--0--0--3--3-----3-------|---0------0--0--0--0--3------3--3--3--3---|
G|---0----0--0--0--0--0--2----------2-----|---0------0--0--0--0--2------2--2--2--2---|
D|---0----0--0--0--0--0--0------------0---|---0------0--0--0--0--0------0--0--0--0---|
A|---2----2--2--2--2--2-------------------|---2------2--2--2--2----------------------|
E|---3----3--3--3--3--3-------------------|---3------3--3--3--3----------------------|

     C         Em         C  
     Sometimes love don't feel like it should
e|---0--0--PM--0--0--0----0--0--PM--0--0--0-----|
B|---1--1------0--0--0----1--1------1--1--1-----|
G|---0--0------0--0--0----0--0------0--0--0-----|
D|---2--2------2--2--2----2--2------2--2--2-----|
A|---3--3------2--2--2----3--3------3--3--3-----|
E|-------------0--0--0--------------------------|

     C            D      D           G  
     You make it         Hurt   so   good
e|---0--0--0--PM--2--PM--2--2--2--2--3-------|
B|---1--1--1------3------3--3--3--3--0-------|
G|---0--0--0------2------2--3--2--2--0-------|
D|---2--2--2------0------0--0--0--0--0-------|
A|---3--3--3-------------------------2-------|
E|-----------------------------------3-------|

[Bridge]
     C                G                   C                Em     G
     I aint talkin no big deals           I aint made no   plans myself
e|---0-PM-0--0--0--0--3-PM-3--3--3--3--|--0-PM-0--0--0--0--0--0--3--3----|
B|---1----1--1--1--1--0----0--0--0--0--|--1----1--1--1--1--0--0--0--0----|
G|---0----0--0--0--0--0----0--0--0--0--|--0----0--0--0--0--0--0--0--0----|
D|---2----2--2--2--2--0----0--0--0--0--|--2----2--2--2--2--2--2--0--0----|
A|---3----3--3--3--3--2----2--2--2--2--|--3----3--3--3--3--2--2--2--2----|
E|--------------------3----3--3--3--3--|-------------------0--0--3--3----|

     C                G                                           
     I aint talkin no high heals,maybe we could
e|---0-PM-0--0--0--0--3-PM-3--3--3--3--PM--3----|
B|---1----1--1--1--1--0----0--0--0--0------0----|
G|---0----0--0--0--0--0----0--0--0--0------0----|
D|---2----2--2--2--2--0----0--0--0--0------0----|
A|---3----3--3--3--3--2----2--2--2--2------2----|
E|--------------------3----3--3--3--3------3----|

     Walk around, all day long       Walk around, all day long
e|--------------------------------|--------------------------------|
B|--------------------------------|--------------------------------|
G|--------------------------------|--------------------------------|
D|-------0----------0-------------|------0-----------0-------------|
A|----0-----2----0-----2-0-3-2----|---0-----2-----0-----2-0-3-2----|
E|--------------------------------|--------------------------------|

e|--------------------------------|--------------------------------|
B|--------------------------------|--------------------------------|
G|--------------------------------|--------------------------------|
D|-------0----------0-------------|------0---------0-0-0-0-0-2-0---|
A|----0-----2----0-----2-0-3-2----|---0-----2----0-----------------|
E|--------------------------------|-----------------------------h3-|

[Chorus]
     G                   D                    G                  D
     Hurt      so        good               Come on baby,make it hurt so good
e|---3-PM-3--3--3--3--3--2----3p2---------|---3--PM--3--3--3--3--2--PM--2--2--2--2---|
B|---0----0--0--0--0--0--3--3-----3-------|---0------0--0--0--0--3------3--3--3--3---|
G|---0----0--0--0--0--0--2----------2-----|---0------0--0--0--0--2------2--2--2--2---|
D|---0----0--0--0--0--0--0------------0---|---0------0--0--0--0--0------0--0--0--0---|
A|---2----2--2--2--2--2-------------------|---2------2--2--2--2----------------------|
E|---3----3--3--3--3--3-------------------|---3------3--3--3--3----------------------|

     C         Em         C  
     Sometimes love don't feel like it should
e|---0--0--PM--0--0--0----0--0--PM--0--0--0-----|
B|---1--1------0--0--0----1--1------1--1--1-----|
G|---0--0------0--0--0----0--0------0--0--0-----|
D|---2--2------2--2--2----2--2------2--2--2-----|
A|---3--3------2--2--2----3--3------3--3--3-----|
E|-------------0--0--0--------------------------|

     C            D      D           G  
     You make it         Hurt   so   good
e|---0--0--0--PM--2--PM--2--2--2--2--3-------|
B|---1--1--1------3------3--3--3--3--0-------|
G|---0--0--0------2------2--3--2--2--0-------|
D|---2--2--2------0------0--0--0--0--0-------|
A|---3--3--3-------------------------2-------|
E|-----------------------------------3-------|

e|----------------------|
B|----------------------|
G|---2--2--2--0---------|
D|--------------2--0----|
A|----------------------|
E|-------------------h3-|

     G                   D                    G                  D
     Hurt      so        good               Come on baby,make it hurt so good
e|---3-PM-3--3--3--3--3--2----3p2---------|---3--PM--3--3--3--3--2--PM--2--2--2--2---|
B|---0----0--0--0--0--0--3--3-----3-------|---0------0--0--0--0--3------3--3--3--3---|
G|---0----0--0--0--0--0--2----------2-----|---0------0--0--0--0--2------2--2--2--2---|
D|---0----0--0--0--0--0--0------------0---|---0------0--0--0--0--0------0--0--0--0---|
A|---2----2--2--2--2--2-------------------|---2------2--2--2--2----------------------|
E|---3----3--3--3--3--3-------------------|---3------3--3--3--3----------------------|

     C         Em         C  
     Sometimes love don't feel like it should
e|---0--0--PM--0--0--0----0--0--PM--0--0--0-----|
B|---1--1------0--0--0----1--1------1--1--1-----|
G|---0--0------0--0--0----0--0------0--0--0-----|
D|---2--2------2--2--2----2--2------2--2--2-----|
A|---3--3------2--2--2----3--3------3--3--3-----|
E|-------------0--0--0--------------------------|

     C            D      D           G  
     You make it         Hurt   so   good
e|---0--0--0--PM--2--PM--2--2--2--2--3-------|
B|---1--1--1------3------3--3--3--3--0-------|
G|---0--0--0------2------2--3--2--2--0-------|
D|---2--2--2------0------0--0--0--0--0-------|
A|---3--3--3-------------------------2-------|
E|-----------------------------------3-------|            
Submit corrections

↑ Back to top | Tablatures and chords for acoustic guitar and electric guitar, ukulele, drums are parodies/interpretations of the original songs. You may use it for private study, scholarship, research or language learning purposes only