» » »

Johannes Oerding - Heimat Tabs

Artists:  A B C D E F G H I J K L M N O P Q R S T U V W X Y Z # 

Heimat Tabs

(ver. 1) Click to play this song!
Johannes Oerding
 Rating:
4/5 (4 votes)

 Heimat lessons Tabs too difficult? Try these video lessons and learn fast
 
                Standad tuning - Capo III

Chord list (Chorus)
     G:   Am7:   C7:   C:   
e    3     0     0     0        
B    3     1     1     1        
G    0     0     0     0         
D    0     2     0    (2)          
A    2     0     2     3        
E    3     0     0     0  

Intro:
e |-----------------------------------------------------------------------------|
B |--0-h-1--3-----0-h-1-----------0----------3---3---1--------------------------|
G |------------0---------0-----0-----0------------------------------------------|
D |---------------2---------2-----------0---------------------------------------|
A |-----------------------------------------------------------------------------|
E |--3----------------------------3---------(3)-(3)-(3)-------------------------|

Verse:
e |--------------------------------------------------|
B |--------1-----------3-----------1-----------1-----|
G |--------0-----------0-----------0-----------0-----|
D |-----0-----0-----0-----0-----2-----0-----2-----0--|
A |--------------------------3-----------3-----------|
E |--3-----------5-----------------------------------|
    Dein      Gesicht - es   spiegelt sich in Regenpfützen
e |--------------------------------------------------|
B |--------1-----------3-----------1-----------1-----|
G |--------0-----------0-----------0-----------0-----|
D |-----0-----0-----4-----4-----2-----0-----2-----0--|
A |--------------5-----------3-----------3-----------|
E |--3-----------------------------------------------|
     Ey sogar    grau kannst du tragen
e |--------------------------------------------------|
B |--------1-----------3-----------1-----------1-----|
G |--------0-----------0-----------0-----------0-----|
D |-----0-----0-----0-----0-----2-----0-----2-----0--|
A |--------------------------3-----------3-----------|
E |--3-----------5-----------------------------------|
Wenn ich wieder mal nicht in deiner Nähe bin
e |--------------------------------------------------|
B |--------1-----------3-----------1-----------1-----|
G |--------0-----------0-----------0-----------0-----|
D |-----0-----0-----4-----4-----2-----0-----2-----0--|
A |--------------5-----------3-----------3-----------|
E |--3-----------------------------------------------|
Dann wartest du mit offenen Armen


Bridge: (you could also strum the chords)

e |---------------------------------------------------------------------|
B |---------------1-----------1-----------1-----------3-----------1-----|
G |---------------0-----------0-----------0-----------0-----------0-----|
D |------------2-----0-----0-----0-----2-----2-----4-----4-----2-----2--|
A |--2--0---0-----------2-----------3-----------5-----------3-----------|
E |---------------------------------------------------------------------|
            In deinen Straßen kann ich mich so wunderbar verlieren
e |-----------------------------|
B |--------1-----------1-----1--|
G |--------0-----------0-----0--|
D |-----2-----0-----0-----0--2--|
A |--0-----------2-----------3--|
E |-----------------------------|
Und was immer ich gerade such-Ich finde es hier

Chorus:

    G        Am7      C7      C
Oh Heimat, schön wie du mich anlachst
              G   Am7          C7      C
Du bist immer da, wenn ich keinen zum Reden hab
    G   Am7          C7      C
Oh Heimat, wie du wieder aussiehst
              G   Am7          C7      C (stop)
Ich trag dich immer, immer bei mir                Wie'n Souvenir


Verse:
Du und ich, nachts allein im Neonlicht
Manchmal tanze ich mit dir
Komm tu nicht so
Ich kenn dich in- und auswendig
Du weißt viel zu viel von mir

Bridge:
Mal bist du laut mal bist du leise
Mal müde, doch nie allein
Wenn du willst kannst du mich wärmen
Oder eiskalt sein

Chorus:
Oh Heimat, schön wie du mich anlachst
Du bist immer da, wenn ich keinen zum Reden hab
Oh Heimat, wie du wieder aussiehst
Ich trag dich immer, immer bei mir
Wie'n Souvenir
            
Submit corrections


        Heimat lessons Hard to play? Try these video lessons and learn fast Heimat lessons
        
↑ Back to top | Tablatures and chords for acoustic guitar and electric guitar, ukulele, drums are parodies/interpretations of the original songs. You may use it for private study, scholarship, research or language learning purposes only