Home » J » Johannes Brahms »

Johannes Brahms - Hungarian Dance No Bass

Artists:  A B C D E F G H I J K L M N O P Q R S T U V W X Y Z # 

Hungarian Dance No Bass

(ver. 1) Click to play this song!
Johannes Brahms
"(5)
G|---------------------------------------------------------------|
D|---------12----------------------------------------------------|
A|-----14------14--13--14-16-14-------12-14----------------9-----|
E|-14-----------------------------15--------14----12-10-9----7---|

G|---------11-----------------------------------------------------------------|
D|-----12------12-11---12-14-12-----------------------------------------------|
A|------------------------------------------------------------------------9---|
E|-14----------------------------15171915141517141214151210121410-12-10-9---7-| 

G|---------------------------------------------------------------|
D|---------12----------------------------------------------------|
A|-----14------14--13--14-16-14-------12-14----------------9-----|
E|-14-----------------------------15--------14----12-10-9----7---|

G|---------11-----------------------------------------------------------------|
D|-----12------12-11---12-14-12-----------------------------------------------|
A|------------------------------------------------------------------------9---|
E|-14----------------------------15171915141517141214151210121410-12-10-9---7-| 

G|-11--11--12--11-------------------------------------------------------------|
D|------------------14---13141614131614---14--14--16-14---12---11121412111412-|
A|----------------------------------------------------------------------------|
E|----------------------------------------------------------------------------|

G|-----------------------------------------------------------------------------------|
D|-11--11--14-12--11-----------------------------------------------------------------|
A|---------------------14---13141614131614---13------------13--14-14--13141614131614-|
E|--------------------------------------------------14-16----------------------------|


G|-11--11--12--11-------------------------------------------------------------|
D|------------------14---13141614131614---14--14--16-14---12---11121412111412-|
A|----------------------------------------------------------------------------|
E|----------------------------------------------------------------------------|

G|-----------------------------------------------------------------------------------|
D|-11--11--14-12--11-----------------------------------------------------------------|
A|---------------------14---13141614131614---13------------13--14-14--13141614131614-|
E|--------------------------------------------------14-16----------------------------|

G|-12--11--16-|
D|---------16-|
A|---------17-|
E|------------|
"            
Submit corrections

↑ Back to top | Tablatures and chords for acoustic guitar and electric guitar, ukulele, drums are parodies/interpretations of the original songs. You may use it for private study, scholarship, research or language learning purposes only