» » »

Johannes Brahms - Gaudeamus Igitur Ukulele

Artists:  A B C D E F G H I J K L M N O P Q R S T U V W X Y Z # 

Gaudeamus Igitur Ukulele

(ver. 1) Click to play this song!
Johannes Brahms
 Rating:
4.4/5 (7 votes)

 Gaudeamus Igitur lessons Tabs too difficult? Try these video lessons and learn fast
 
                [Chours]
   G         C        D         G
A|-2-------|--------|-----0---|-2-2---|
E|-3-------|-0-0-0--|-2-----2-|-3---3-|
C|-2-2-2---|-0------|-2-------|-2-----|
G|-0-----0-|-0------|-2-0-----|-0-----|   Play it twice

   D         G   D
A|-----0-0-|-2---0-0-|
E|-2-------|-3---2---|
C|-2-------|-2---2---|
G|-2-0-----|-0-0-2---|   Play it twice

   G   C         G  B7 Em   G   C            D G
A|-2-----3-2-0-|-2--2--2--|-2-----3-2-0-|-5----2-|
E|-3-2-0-------|-3--2--3--|-3-2-0---0---|-3--2-3-|
C|-2---0-------|-2--3--4--|-2---0---0---|-2--2-2-|
G|-0---0-------|-4--2--0--|-0---0---2---|-0--2-0-|
            
Submit corrections


        Gaudeamus Igitur lessons Hard to play? Try these video lessons and learn fast Gaudeamus Igitur lessons
        
↑ Back to top | Tablatures and chords for acoustic guitar and electric guitar, ukulele, drums are parodies/interpretations of the original songs. You may use it for private study, scholarship, research or language learning purposes only