Home » J » Joe Purdy »

Joe Purdy - I Love The Rain The Most Acoustic Tabs

Artists:  A B C D E F G H I J K L M N O P Q R S T U V W X Y Z # 

I Love The Rain The Most Acoustic Tabs

(ver. 1) Click to play this song!
Joe Purdy
[Base Chords]

e|---------------0-----------------------------------------------------------|
B|----1----------1---------1--------1----------------------------------------|
G|----0----------2---------2--------0----------------------------------------|
D|----2----------3---------2--------0----------------------------------------|
A|----3--------------------0--------2----------------------------------------|
E|----------------------------------3----------------------------------------|
      C        Fmaj7       Am       Gm7


[Intro/Verse/Chorus]

e|--------------------------------------------------------------------------------|
B|---------------------1-------1------1-------------------------------------------|
G|----0------ 0-----h2-2h0-----0h2----2h0----0-------0----------------------------|
D|----2-2-0h2p2---0h3-----3----0h2----2------0-------0----------------------------|
A|----3---3--------------------0----0----0---0h2--2--2p0--------------------------|
E|-------------------------------------------3-------3----------------------------|
      C          Fmaj7         Am           Gm7


            
Submit corrections

↑ Back to top | Tablatures and chords for acoustic guitar and electric guitar, ukulele, drums are parodies/interpretations of the original songs. You may use it for private study, scholarship, research or language learning purposes only