Home » J » Joe Pass »

Joe Pass - My Romance Tabs

Artists:  A B C D E F G H I J K L M N O P Q R S T U V W X Y Z # 

My Romance Tabs

(ver. 1) Click to play this song!
Joe Pass
(Intro)
this is my first tab so lay off. I fixed it (spaced it)

standard tuning ' intro:my romance

e--------0------0----------------0----------------------------0-------|
b------1---1--1---1-----------1------1---------------1--------1-------|
g----2---2----2---2---------0-----------0---------0-----0-----0-------|
d---3-----3---3---3------2----------------2-----2-------------2-------|
a---------------------------------------------------------------------|
e-3-----3-----3---3----2---------------------2----------------2-------|


e-----------------0-------------------0---------------------0-------------|
b--------------0-----0----------------0-------------0-----0---0-6\8\6-5-3-|
g-----------4-----------4-------------4---------4-----4-------------------|
d--------5------------------5---------5-------5---5-----5-----------------|
a-----5------------------------5------5----5------------------------------|
e--3------------------------------3---3-----------------------------------|

e------3--------3\5-7-8-7-5---------------------------------0---------|
b--5\6------5\6---------------8--656---------5---------5--------------|
g--------------------------------------5--6------5--6-----------------|
d---------------------------------------------------------------------|
a--3--------3-----------------5---5----5---------5----------3---------|
e---------------------------------------------------------------------|


e-0/1-------------------------12/13/12-----10/12/8------------------|
b----1/3/1/0---12/13/15-121315--------10/12-------10/12/8-----------|
g-----------------------------------------------------------8/7/6/5-|
d-------------------------------------------------------------------|
a-3----3---3---12-------------------0-------------------0---8/7/6/5-|
e-------------------------------------------------------------------|

e--3
b--5
g--3
d---
a--3
e---
            
Submit corrections

↑ Back to top | Tablatures and chords for acoustic guitar and electric guitar, ukulele, drums are parodies/interpretations of the original songs. You may use it for private study, scholarship, research or language learning purposes only