Home » J » Joe Pass »

Joe Pass - Just Friends Tabs

Artists:  A B C D E F G H I J K L M N O P Q R S T U V W X Y Z # 

Just Friends Tabs

(ver. 1) Click to play this song!
Joe Pass
e|-----3---------------3-------------------3-------------5-4-3------|
B|---------------------4---------------6-------6---------------6-4--|
G|-------------------5-----------------------------4----------------|
D|-------------------------------------------------3----------------|
A|-------------------------------------------------4----------------|
E|-------------------4----------------------------------------------|
 
e|-----------------------------------------8------13---------------|
B|-------------------6-----6----------------11-------------4---6-4-|
G|-5-5-3-------------5-----7---------710-8-------------------------|
D|-------6-----5-----4-----5-----6-8-------------------------------|
A|-------------------5-----6---------------------------------------|
E|-----------------------------------------------------------------|
 
e|-------------------2-5---8-5-------------------------------------|
B|-----------------4-----------7---------------------4-----------4-|
G|---2---------2-5---------------8---5---------------5---------5---|
D|---1-----1-4-------------------------7---4-3-------5-----------6-|
A|---1-------------------------------------------------------------|
E|---2-----------------------------------------------------6-------|
 
e|-----------------------3-6-5-4-6-3------------------------------|
B|-6-------------------4-------------7-----6-------7-8------------|
G|-------7-------3---5-------------------------------------8------|
D|-------6---3-5---5-6-------------------------------------8------|
A|----------------------------------------------------------------|
E|-------6---------------------------------7---------------8------|
 
e|-------------8----------------------------1011--10-----7---------|
B|-------811---8-------8----------------11------12--13-8--10-8-----|
G|---7-8-------8-------7--------10----1012---------------------8---|
D|10-----------8-------7------10121213---------------------------9-|
A|10---------------------------------------------------------------|
E|-----------------------------------------------------------------|
 
e|-----------------------------3-----1-----1---3-------2-6-----6---|
B|---------------------3-4---6-1-------4---1-----------6---8 9 6---|
G|-----------------5-----------0-----------1-----------6-------6---|
D|-----------------------------------------------------------------|
A|10-6-----8-------------------------------1---------------------6-|
E|-------8---------------------1-----------------------6-----------|
 
e|---------8-----3-----------3-----------------3-------------6-9-7-|
B|---------9-----4-------3-4---6-4-----------6---6-------4-7---7---|
G|---------9-----3-----------------5-----------------4---------8---|
D|-----------------------4-----------5---3-----------4---------6---|
A|---------9---------------------------6-5-------------------------|
E|---------------4-----------------------------------4-------------|
 
e|---4-7---6-----4-----------------------------8-------5-6---------|
B|---4-----------4-------6---6---------8-9--10--11-8-------7-8-----|
G|---4-----------4-------5---7-------8---------------8-------8-----|
D|---4-------------------4---5-----8------------------10---------8-|
A|---------------4-------5-----6-----------------------------------|
E|-----------------------------------------------------------------|
 
e|-------------------------------------------2-----7---8--10-7---8-|
B|---------4---6-4-------------------------4----10-----------------|
G|---------------------2-------------2-4---------------------------|
D|-6---5---------------1---------1-4-------------------------------|
A|---6-------------------------------------------------------------|
E|---------------------2---------2---------------------------------|
 
e|---5-------------------------1-----------------------------------|
B|---4-------------4---------4---4-----3---3-3-4---5-----6-------2-|
G|---5---------------------1-------------1-------------5-----5-4-4-|
D|-----4-----------1---1-----------------------------------4---3-3-|
A|-----------------------------------1---------------5-------------|
E|-----------------1---------------------------------------4-----3-|
 
e|-----3---------3-6---7-8 7-8---3-----3-----1-------------6-------|
B|---3-3-6---4-6-4-----7-8 7-8---3-----3-----1---------4-6---8-----|
G|-----4-----3---------7-8 7-8---2-----2-----1-------5-----------8-|
D|-----3-----5---------6-7-6---7-----------------3-6-------------8-|
A|-----------3-------------------------2-----1---------------------|
E|---------------------------------1-------------------------------|
 
e|----------------------------------------------------------------|
B|---------------9 7-------------------------------5--------------|
G|-------8 6---5----10--------11-9 8-------------------7---6------|
D|-6---5--------------11-9 8-----------9---7---6-----------5------|
A|---5------------------------------------------------------------|
E|-----------------------------------------7---0-----------4------|
 
e|-------4-5-6-6---7-----------5-----5-------------3-5---3--------|
B|-7-7---------------4-------------------------3------------------|
G|-----------------5-----------------------4-------------------3--|
D|-------------------0-------------------4---------------------2--|
A|-------------------------------------------------------------3--|
E|-----------------------------------3----------------------------|
 
e|-5---3-8---6-5-6---5---3-------2---------------------------------|
B|-------6---6-3-----3---------------5---3---5-----5---------------|
G|-------7-----3-----3-----------------------6-----4-------6-------|
D|---------5---3-----2-----------------------4-----2-------3-------|
A|-------------------------------------------5-----4-------5-----0-|
E|-----------------------------------------------------------------|
 
e|---------------------------3---6-----3-----------------------6--|
B|---3-5-3-------------------4-----4---6-4-----------------8------|
G|-----------1---------3---5---------5-----5-------------7--------|
D|-----------0-----4-5---5-------------------6---8-----6----------|
A|---------------------------------------------8------------------|
E|-----------1-------------------------------------7-6------------|
 
e|-------------2-----------------------2-------0-------------------|
B|-------3-4-------3---5---3-4-----------5-5-5---5---4---4-3---1---|
G|-------4-4-------4---6---------4-3---------------------------3-4-|
D|-------2-1-------2---5---------3-0-------------------------4-----|
A|-----------------------------------------------------------------|
E|---0-----------------5---------3-2-------------------------------|
 
e|---2---1-2-------------------------------------------7----------|
B|-3-----2-3-----6-5-3-------------------------710---7------------|
G|-4---------------------4-------------------7-9-----7------------|
D|-----------------------------------------------------7----------|
A|----------------------------------------------------------------|
E|----------------------------------------------------------------|
 
e|-------------------------91210-----------------------------------|
B|---7------------------10---------------------5-7-5-----7---5---4-|
G|---7-----------9-----911---------------5-6-7-------7---6---------|
D|---6-------610111112-----------------------------------5---------|
A|-----------------------------------------------------------------|
E|---0---------------------------------------------------5---------|
 
e|---------------------7-810-9-7-----------------------------2-----|
B|---5---------------8-----------8---------4-5-------5-7-8---3-----|
G|-----------7---7-9---------------7---6-5-----4---7---------2-----|
D|-------7-9---910-------------------------------7-----------5-----|
A|-----------------------------------------------------------------|
E|-----------------------------------------------------------------|
            
Submit corrections

↑ Back to top | Tablatures and chords for acoustic guitar and electric guitar, ukulele, drums are parodies/interpretations of the original songs. You may use it for private study, scholarship, research or language learning purposes only