Home » J » Joe Hisaishi »

Joe Hisaishi - Laputa Castle In The Sky Tabs

Artists:  A B C D E F G H I J K L M N O P Q R S T U V W X Y Z # 

Laputa Castle In The Sky Tabs

(ver. 1) Click to play this song!
Joe Hisaishi
This is just the basic melody line of the theme from Castle in the Sky. I'm 100% sure if this is right, but 
this is just what I got from listening to it.

e|------------3-----------------------------------------------------------3----------------|
B|--1-3-4-3-4---3-----1---1-4-------------4-------4-3-----3-3---1-3-4-3-4---3-----1---1-4--|
G|------------------0---3-----3---0-1-0-1-------------2-2-----------------------0---3-----3|
D|------------------------------------------5-3-5------------------------------------------|
A|-----------------------------------------------------------------------------------------|
E|-----------------------------------------------------------------------------------------|

e|--------------------------------------------6-------------3-3--------------------|
B|------4-3-4-6-8-4---4-3-1-3---1---4-6-8-6-8---6-----4-3-4-------1-3-4-3-4-6-4----|
G|--0-1-----------------------4---------------------3---------------------------3-3|
D|---------------------------------------------------------------------------------|
A|---------------------------------------------------------------------------------|
E|---------------------------------------------------------------------------------|

e|--4-3-1---3------8-6-----------------6-3---3-8-6-------------------------|
B|--------4------8-----8-6-4---4-6-4-6-------------8-6-4---4-6-4-6-3-1-----|
G|-------------------------------------------------------------------------|
D|-------------------------------------------------------------------------|
A|-------------------------------------------------------------------------|
E|-------------------------------------------------------------------------|

            
Submit corrections

↑ Back to top | Tablatures and chords for acoustic guitar and electric guitar, ukulele, drums are parodies/interpretations of the original songs. You may use it for private study, scholarship, research or language learning purposes only