Home » J » Joe Hisaishi »

Joe Hisaishi - First Love Acoustic Tabs

Artists:  A B C D E F G H I J K L M N O P Q R S T U V W X Y Z # 

First Love Acoustic Tabs

(ver. 1) Click to play this song!
Joe Hisaishi
    Intro (x2)
e|----3----3---3-5-----------------------------------------------------------|
B|---3----3---3--------------------------------------------------------------|
G|--0----0---2---------------------------------------------------------------|
D|----------0----------------------------------------------------------------|
A|-1----3--------------------------------------------------------------------|
E|---------------------------------------------------------------------------|

  Part 1                           Part 1, Ending 1
e|-5-8-10~-13-15-17-10-13-12-10-8-|-5-8-3--5-3-5-8-5-------------------------|
B|--------------------------------|-----------------6-3-6--------------------|
G|--------------------------------|----------------------5-------------------|
D|--------------------------------|------------------------------------------|
A|--------------------------------|------------------------------------------|
E|--------------------------------|------------------------------------------|

  Part 1, Ending 2
e|-5-8-10-8-5-3-5-8-0--------------------------------------------------------|
B|-------------------3-------------------------------------------------------|
G|---------------------------------------------------------------------------|
D|---------------------------------------------------------------------------|
A|---------------------------------------------------------------------------|
E|---------------------------------------------------------------------------|

  Part 2                      Part 2, Ending 1
e|--1-1-3-1--0--5-5-5-6-5--3-|-8-8-8-8-10--8-6-5-8-3-1-3---------------------|
B|-1-------------------------|-----------------------------------------------|
G|---------------------------|-----------------------------------------------|
D|---------------------------|-----------------------------------------------|
A|---------------------------|-----------------------------------------------|
E|---------------------------|-----------------------------------------------|

  Part 2, Ending 2
e|-1--3-5-8-12-13-10-8-8--6-8-5-1-3--8-10-6-3-5--5---------------------------|
B|---------------------------------------------------------------------------|
G|---------------------------------------------------------------------------|
D|---------------------------------------------------------------------------|
A|---------------------------------------------------------------------------|
E|---------------------------------------------------------------------------|

  Part 1                           Part 1, Ending 1
e|-5-8-10~-13-15-17-10-13-12-10-8-|-5-8-3--5-3-5-8-5-------------------------|
B|--------------------------------|-----------------6-3-6--------------------|
G|--------------------------------|----------------------5-------------------|
D|--------------------------------|------------------------------------------|
A|--------------------------------|------------------------------------------|
E|--------------------------------|------------------------------------------|

  Part 1, Ending 2
e|-5-8-10-8-5-3-5-8-0-2------------------------------------------------------|
B|--------------------3------------------------------------------------------|
G|---------------------------------------------------------------------------|
D|---------------------------------------------------------------------------|
A|---------------------------------------------------------------------------|
E|---------------------------------------------------------------------------|

Part 3, cello
e|---------------------------------------------------------------------------|
B|---------------------------------------------------------------------------|
G|---------------------------------------------------------------------------|
D|----------------------------12---------------------------------------------|
A|-0-3-5---7--5-7-8--10-12--15--15-12-10--12-8--5-8-3------------------------|
E|---------------------------------------------------------------------------|

  Part 1                           Part 1, Ending 1
e|-5-8-10~-13-15-17-10-13-12-10-8-|-5-8-3--5-3-5-8-5-------------------------|
B|--------------------------------|-----------------6-3-6--------------------|
G|--------------------------------|----------------------5-------------------|
D|--------------------------------|------------------------------------------|
A|--------------------------------|------------------------------------------|
E|--------------------------------|------------------------------------------|

  Part 1, Ending 2
e|-5-8-10-8-5-3-5-8-0--------------------------------------------------------|
B|-------------------3-------------------------------------------------------|
G|---------------------------------------------------------------------------|
D|---------------------------------------------------------------------------|
A|---------------------------------------------------------------------------|
E|---------------------------------------------------------------------------|

  Part 2                      Part 2, Ending 1
e|--1-1-3-1--0--5-5-5-6-5--3-|-8-8-8-8-10--8-6-5-8-3-1-3---------------------|
B|-1-------------------------|-----------------------------------------------|
G|---------------------------|-----------------------------------------------|
D|---------------------------|-----------------------------------------------|
A|---------------------------|-----------------------------------------------|
E|---------------------------|-----------------------------------------------|

  Part 2, Ending 2
e|-1--3-5-8-12-13-10-8-8--6-8-5-1-3--8-10-6-3-5--5---------------------------|
B|---------------------------------------------------------------------------|
G|---------------------------------------------------------------------------|
D|---------------------------------------------------------------------------|
A|---------------------------------------------------------------------------|
E|---------------------------------------------------------------------------|

  Part 1                           Part 1, Ending 1
e|-5-8-10~-13-15-17-10-13-12-10-8-|-5-8-3--5-3-5-8-5-------------------------|
B|--------------------------------|-----------------6-3-6--------------------|
G|--------------------------------|----------------------5-------------------|
D|--------------------------------|------------------------------------------|
A|--------------------------------|------------------------------------------|
E|--------------------------------|------------------------------------------|

  Part 1, Ending 2
e|-5-8-3--5-3-5-8-0---3---0-2------------------------------------------------|
B|-------------------3------3------------------------------------------------|
G|---------------------------------------------------------------------------|
D|---------------------------------------------------------------------------|
A|---------------------------------------------------------------------------|
E|---------------------------------------------------------------------------|

            
Submit corrections

↑ Back to top | Tablatures and chords for acoustic guitar and electric guitar, ukulele, drums are parodies/interpretations of the original songs. You may use it for private study, scholarship, research or language learning purposes only