Home » J » Joe Cocker »

Joe Cocker - Never Tear Us Apart Tabs

Artists:  A B C D E F G H I J K L M N O P Q R S T U V W X Y Z # 

Never Tear Us Apart Tabs

(ver. 1) Click to play this song!
Joe Cocker
 Rating:
4.3/5 (29 votes)
                e|-----------------------------------|----------------------------------------|
B|------15b-(hold)~~---15r---13------|-15---18b-(hold)---18b+---18----17---15-|
G|-14---------------------------14\0-|----------------------------------------|
D|-----------------------------------|----------------------------------------|
A|-----------------------------------|----------------------------------------|
E|-----------------------------------|----------------------------------------|

e|---------------15---------------------|---------------5-------7---7b-(hold)---7br--5h7---5-|
B|--13-----15b-(hold)-15pb---13p10h13\0-|-5---8-------------5--------------------------------|
G|--------------------------------------|----------7b----------------------------------------|
D|--------------------------------------|----------------------------------------------------|
A|--------------------------------------|----------------------------------------------------|
E|--------------------------------------|----------------------------------------------------|

e|---------------------------------------------------------------|
B|-5---8---------8----5------------------------------------------|
G|---------7b-----------7br---5h7---7---5----------5-------------|
D|------------------------------------------7---5-----7----5\0---|
A|---------------------------------------------------------------|
E|---------------------------------------------------------------|

e|--------------------------5---3-------------------|
B|--------------------3h5-----------5---3-----------|
G|------------5-----------------------------5---2~~-|
D|--------------------------------------------------|
A|--------------------------------------------------|
E|-3h5---5-------5----------------------------------|            
Submit corrections

↑ Back to top | Tablatures and chords for acoustic guitar and electric guitar, ukulele, drums are parodies/interpretations of the original songs. You may use it for private study, scholarship, research or language learning purposes only