» » »

Joe Bonamassa - The Ballad Of John Henry Bass

Artists:  A B C D E F G H I J K L M N O P Q R S T U V W X Y Z # 

The Ballad Of John Henry Bass

(ver. 1) Click to play this song!
Joe Bonamassa
 Rating:
4/5 (4 votes)


 The Ballad Of John Henry lessons Tabs too difficult? Try these video lessons and learn fast
 
                -----------------------------------------------------------------------------
                             Ballad Of John Henry - Joe Bonamassa
-----------------------------------------------------------------------------

Tuning: Standard

Verse (6x)                                  (1x)

G|--------------------------------------|-----------------------------------|
D|--------------------------------------|-----------------------------------|
A|---------------5----------------------|-----------------------------------|
E|--5--7--5--7------7--5--7--5--7-------|-----------------------------------|
B|---------------------------------3--5-|---r--------5--------5-------------|

        (4x)                                (1x)                        
G|--------------------------------------|-----------------------------------|
D|--------------------------------------|-----------------------------------|
A|---------------5----------------------|-----------------------------------|
E|--5--7--5--7------7--5--7--5--7-------|-----------------------------------|
B|---------------------------------3--5-|---r--------5----5----5----5-------|

        (4x)
G|--------------------------------------------------------------------------|
D|--------------------------------------------------------------------------|
A|---------------5----------------------------------------------------------|
E|--5--7--5--7------7--5--7--5--7-------------------------------------------|
B|---------------------------------3--5-------------------------------------|

Guitar Solo - 1st Part (5x)

G|--------------------------------------------------------------------------|
D|--------------------------------------------------------------------------|
A|--------------------------------------------------------------------------|
E|--2--2--2--2--3--2--3-----------------------------------------------------|
B|--------------------------------------------------------------------------|

Guitar Solo 2nd Part (Play until end of next verse after solo)

G|--------------------------------------------------------------------------|
D|--------------------------------------------------------------------------|
A|--------------------------------------------------------------------------|
E|--------------------------------------------------------------------------|
B|--0--0--0--0--0--0--0--0--0--0--0--0--0--0--0--0--0--0--0--0--0--0--0--0--|

Verse  (8x)

G|--------------------------------------------------------------------------|
D|--------------------------------------------------------------------------|
A|---------------5----------------------------------------------------------|
E|--5--7--5--7------7--5--7--5--7-------------------------------------------|
B|---------------------------------3--5-------------------------------------|

Ending (5x) Fade Out

G|--------------------------------------------------------------------------|
D|--------------------------------------------------------------------------|
A|--------------------------------------------------------------------------|
E|--5---5---5---5-----------------------------------------------------------|
B|--3---3---3---3-----------------------------------------------------------|



| /  slide up
| \  slide down
| h  hammer-on
| p  pull-off
| r  rest
| ~  vibrato
| +  harmonic
| x  Mute note
=============================================================================
            
Submit corrections



        The Ballad Of John Henry lessons Hard to play? Try these video lessons and learn fast The Ballad Of John Henry lessons
        
↑ Back to top | Tablatures and chords for acoustic guitar and electric guitar, ukulele, drums are parodies/interpretations of the original songs. You may use it for private study, scholarship, research or language learning purposes only