Home » J » Joe Bonamassa »

Joe Bonamassa - Notches Tabs

Artists:  A B C D E F G H I J K L M N O P Q R S T U V W X Y Z # 

Notches Tabs

(ver. 1) Click to play this song!
Joe Bonamassa
[Main Riff]
(lead)
e|-----------------------------------------|
B|-----------------------------------------|
G|-----------5-7-7b-5------5-----5-----5---|
D|-------5-7----------7-5h7-7-5h7-7-5h7-7~~|
A|-/////-----------------------------------|
E|-----------------------------------------|
(rhythm)
e|---------------------------------------|
B|---------------------------------------|
G|---------------------------------------|
D|-7-7-7-7-|-7-7-7-7-|-7-7-7-7-|-7-7-7-7-|
A|-7-7-7-7-|-7-7-7-7-|-7-7-7-7-|-7-7-7-7-|
E|-5-5-5-5-|-5-5-5-5-|-5-5-5-5-|-5-5-5-5-|
 
 
[Verse]
 
e|-----------------------------------------------------------------------------|
B|-----------------------------------------------------------------------------|
G|-----------------------------------------------------------------------------|
D|-7-7-7-7-7-5-5-5-5-5-5/7-7-7-7-7-5-5-5-5-5-5/7-7-7-7-7-5-5-5-5-5-5/7-7-7-7-7-|
A|-7-7-7-7-7-5-5-5-5-5-5/7-7-7-7-7-5-5-5-5-5-5/7-7-7-7-7-5-5-5-5-5-5/7-7-7-7-7-|
E|-5-5-5-5-5-3-3-3-3-3-3/5-5-5-5-5-3-3-3-3-3-3/5-5-5-5-5-3-3-3-3-3-3/5-5-5-5-5-|
 
e|------------------------------------------------|
B|------------------------------------------------|
G|-------------5-5-5-5-5-5-5-5/7-7-7-7-7-7-7-7\\\-|
D|-5-5-5-5-5-5-5-5-5-5-5-5-5-5/7-7-7-7-7-7-7-7\\\-| (Back to Main Riff)
A|-5-5-5-5-5-5-3-3-3-3-3-3-3-3/5-5-5-5-5-5-5-5\\\-|
E|-3-3-3-3-3-3------------------------------------|
 
[Chorus]
"I've got miles under my wheels..."
(lead, listen for timing, after 1st bar, then drops after a few bars to restart again when chorus restarts)
e|-----------------|
B|-----------------|
G|--7-5------------|
D|------7-5h7-7~~--|
A|-----------------|
E|-----------------|
(rhythm, repeat for several bars, use fretting hand to mute strings to beat)
e|-------------------------||------------------------------------|
B|-------------------------||------------------------------------|
G|-------------------------||-5-5-5-5-5-5-5-5/7-7-7-7-7-7-7-7\\\-|
D|-7-x-x-7-x-x-7-x-x-7-x-x-||-5-5-5-5-5-5-5-5/7-7-7-7-7-7-7-7\\\-| (back to main riff)
A|-7-x-x-7-x-x-7-x-x-7-x-x-||-3-3-3-3-3-3-3-3/5-5-5-5-5-5-5-5\\\-|
E|-5-x-x-5-x-x-5-x-x-5-x-x-||------------------------------------|
            
Submit corrections

↑ Back to top | Tablatures and chords for acoustic guitar and electric guitar, ukulele, drums are parodies/interpretations of the original songs. You may use it for private study, scholarship, research or language learning purposes only