Home » J » Joan Baez »

Joan Baez - I Never Will Marry Tabs

Artists:  A B C D E F G H I J K L M N O P Q R S T U V W X Y Z # 

I Never Will Marry Tabs

(ver. 1) Click to play this song!
Joan Baez
(Capo on III)

Intro:
  C               G                   C               C7
e|------------0--|------------3------|------------0--|----------------0--|
B|----------1----|----------0---0----|----------1----|--------------1----|
G|--------0------|--------0-------0--|--------0------|------0-----3------|
D|---------------|--2--0-------------|--3--2---------|--0h2--------------|
A|-----3---------|-------------------|---------------|---------3---------|
E|--3------------|-------------------|---------------|-------------------|
  F               G              C                    C7
e|------------1--|-----------3--|-------------0------|---------0--|
B|----------1----|---------0----|-----------1---1----|-------1----|
G|---------------|--0-2-0-------|---------0-------0--|-----3------|
D|-----3---------|--------------|--0--2--------------|------------|
A|--3------------|--------------|--------------------|--3---------|
E|---------------|--------------|--------------------|------------|
  F               G               C               Am
e|------------1--|----------3----|------------0--|---------------0--|
B|----------1----|--------0---0--|----------1----|---------------1--|
G|--------2------|--2--0---------|--------0------|------0-----2-----|
D|-----3---------|---------------|--0--2---------|--0h2-------------|
A|--3------------|---------------|---------------|---------0--------|
E|---------------|---------------|---------------|------------------|
  F              G                C
e|-----------1--|-----------3----|------------0--|------------0--|
B|-----------1--|---------0---0--|----------1----|----------1----|
G|--------2-----|----------------|--------0------|--------0------|
D|-----0--------|--2-3-2---------|--0------------|---------------|
A|--3-----------|----------------|-----3---------|-----3---------|
E|--------------|----------------|---------------|--3------------|


Verse:
     C        G         C      C7
Some say that love is a gentle thing
       F        G          C      C7
But it only has brought me pain
        F    G     C    Am
And the only boy I ever loved
    F            G        C
Has gone on that midnight train


Chorus:
             G
I never will marry
     C           F
I'll be no man's wife
                 C        G       
I expect to live single
                   C      F   G   C
All the days of my life


    C            G
The train pulled out
    C           C7
and The whistle blew
       F         G        C      C7
With a low and a lonesome song
     F         G
He's gone he's gone
     C       Am
Like morning dew
    F    G    C
And left me behind


             G
I never will marry
     C           F
I'll be no man's wife
                 C        G       
I expect to live single
                   C      F   G   C
All the days of my life


        C      G             C       C7 
There's many a change in the weather dear
    F      G       C      C7
And in the cloud's design
        F      G           C           Am
There's many a change in a young man's heart
F       G         C
Never a change in mine


             G
I never will marry
     C           F
I'll be no man's wife
                 C        G       
I expect to live single
                   C      F   G   C
All the days of my life            
Submit corrections

↑ Back to top | Tablatures and chords for acoustic guitar and electric guitar, ukulele, drums are parodies/interpretations of the original songs. You may use it for private study, scholarship, research or language learning purposes only