Home » J » Joan Armatrading »

Joan Armatrading - Woncha Come On Home Tabs

Artists:  A B C D E F G H I J K L M N O P Q R S T U V W X Y Z # 

Woncha Come On Home Tabs

(ver. 1) Click to play this song!
Joan Armatrading
                          

                          Woncha Come On Home

                           by Joan Armatrading






This is a really pretty song by Joan Armatrading.  
The tab isn't perfect but it sounds pretty good (this is my first tab ;)
The full lyrics are at the bottom.
Enjoy!








Tuning:D-A-D-F#-A-D
/ = slide up


Here's the Verse:         (REMEMBER TO TUNE TO OPEN D)

D |-------|------0-------0--|------0----4--5-|--7---------|--9-7------|--------|
A |-------|------0-------0--|------0---------|--5------5--|-------9-7-|--------|
F#|-5--7--|------0-------0--|------0----3--5-|--5---------|-----------|--8-----|
D |-4--6--|------4-------4--|------4---------|------------|-----------|--------|
A |-------|--5-------5------|---5------------|------------|-----------|--------|
D |-------|-----------------|----------------|------------|-----------|--------|
            eve- ry light is   on but all the  rooms  are  empty except  one

D |-9--7-|------0--------0--|------------|--------0-----0---|-----0---4-5-|-7-------|
A |-9--7-|------0--------0--|------------|--------0-----0---|-----0-------|-5-------|
F#|------|------0--------0--|-5-----7----|--------0-----0---|-----0---3-5-|-5---7/9-|
D |------|------4--------4--|-4-----6----|--------4-----4---|-----4-------|---------|
A |------|--5---------5-----|------------|--5--------5------|--5----------|---------|
D |------|------------------|-0-----0----|------------------|-------------|---------|
       oh baby dont stay too late you know I hate to be al-  one and now im aloone

D |--9--7-------|---------|-------------|---12---|-----------|
A |--------9--7-|---------|--9------7---|---0----|-----------|
F#|-------------|--8------|--0------0---|--------|----5---7--|
D |-------------|---------|-------------|---0----|----4---6--|
A |-------------|---------|-------------|--------|-----------|
D |-------------|---------|--0------0---|---0----|-----------|

                     baby woncha come on   home





Here's the Refrain:

D |-----5----------5---|---------5--------5--|---------5---------5-----------|
A |-----5----------5---|---------5--------5--|---------5---------5-----------|
F#|-----5----------5---|---------5--------5--|---------5---------5-----------|
D |-----5----------5---|---------5--------5--|---------5---------5-----------|
A |-----5----------5---|---------5--------5--|---------5---------5-----------|
D |--5-------5---------|----5---------5------|----5----------5---------------|
 theres a   mad - man   standin on  the corner   and   he  keeps on

D |-----5---------5--|---------4-----5----|---7---|----|--5----|-------------|
A |-----5---------5--|---------0----------|---0---|----|--0----|--9---7------|
F#|-----5---------5--|---------3-----5----|---7---|----|-------|---------8---|
D |-----5---------5--|---------------0----|-------|----|--0----|-------------|
A |-----5---------5--|--------------------|-------|----|-------|-------------|
D |--5-------5-------|--------------------|-------|----|--0----|-------------|
 lookin in my window oh babe woncha come on home        ho-ome

D |--4---5---7--|-------|----------|-----------|
A |--5---5---5--|-------|----7-----|-----------|
F#|-------------|-------|----5-----|----5---7--|
D |--0---0------|-------|----------|----4---6--|
A |-------------|-------|----0-----|-----------|
D |----------0--|-------|----------|-----------|



Every light is on
But all the rooms
Are empty
Except one
Oh babe don't stay too late
You know I hate to be alone
And I'm alone
Baby woncha come on home

There's a madman
Standing on the corner
And he keeps on looking
At my window
Oh baby woncha come on home
Home

Every key is turned
And every window's bolted
Oh babe you know I get so scared
You know I couldn't live alone
It's just been confirmed
Baby woncha come on home

Bridge (not included sorry)

There's a man
Standing on the corner
Now a shadow
Moves across the window
Oh baby woncha come on home
Home 

Every light is on
But all the rooms
Are empty
Except one
Oh babe don't stay too late
You know I hate to be alone
And I'm alone
Baby woncha come on home
Baby woncha come on home
            
Submit corrections

↑ Back to top | Tablatures and chords for acoustic guitar and electric guitar, ukulele, drums are parodies/interpretations of the original songs. You may use it for private study, scholarship, research or language learning purposes only