Home » J » Jim Reeves »

Jim Reeves - Welcome To My World Bass

Artists:  A B C D E F G H I J K L M N O P Q R S T U V W X Y Z # 

Welcome To My World Bass

(ver. 1) Click to play this song!
Jim Reeves
[Intro]
(00:07)
G|--------------------|---------------------|
D|-6------------------|------8--------------|
A|------6-------------|-6----------6--6-----|
E|-----------6----6---|---------6-----------|

[Verse]
G|--------------------|----------------------|--------------------|---------------------|
D|-6------------------|------8--------5-8----|-6------------------|------8------------5-|
A|------6-------------|-6---------6--------6-|------6-------------|-6---------6----6----|
E|-----------6----6---|----------------------|-----------6----6---|---------------------|

G|--------------------|---------------------|--------------------|--------------------|
D|-6------------------|---------------------|-6------------------|------6-------------|
A|------6-------------|-6---------6-------6-|------6-------------|-6---------6----6---|
E|-----------6----6---|------6---------6----|-----------6----6---|--------------------|

[Bridge]
G|--------------|--------------|--------------|---------------|
D|--------------|--------------|--------------|---------------|
A|--------------|--6-6-6--6-6-6|--------------|--6-6-6-6-6-6-6|
E|--6-6-6--6-6-6|--------------|--6-6-6--6-6-6|---------------|

G|--------------|---------------|----------|--------------------|
D|--------------|---------------|----------|-8---------8--------|
A|--------------|--6-6-6-6-6-6-6|-8----8---|------8-------------|
E|--6-6-6--6-6-6|---------------|----------|--------------6-----|

[Verse/Outro]
G|--------------------|---------------------|--------------------|----------------------|
D|-6------------------|-------------------5-|-6------------------|---------------5-8----|
A|------6-------------|-6---------6----6----|------6-------------|-6---------6--------6-|
E|-----------6----6---|------6--------------|-----------6----6---|------6---------------|

G|--------------------|----------------------|--------------------------|--------------------|
D|-6------------------|---------------5-8----|-6------------------------|--------------------|
A|------6-------------|-6---------6--------6-|------6-------------------|-6-----------------6|
E|-----------6----6---|------6---------------|-----------6--6-----------|----------4---------|            
Submit corrections

↑ Back to top | Tablatures and chords for acoustic guitar and electric guitar, ukulele, drums are parodies/interpretations of the original songs. You may use it for private study, scholarship, research or language learning purposes only