» » »

Jimmy Reed - Big Boss Man Tabs

Artists:  A B C D E F G H I J K L M N O P Q R S T U V W X Y Z # 

Big Boss Man Tabs

(ver. 1) Click to play this song!
Jimmy Reed
 Rating:
4.3/5 (29 votes)

 Big Boss Man lessons Tabs too difficult? Try these video lessons and learn fast
 
                [Intro]
    E                               B7
e|-------------------------------|-----------2-2-0---------------|
B|-------------------------------|-----------0-0-0---------------|
G|-------------------------------|-----------2-2-0---------------|
D|-------------------------------|-------------------------------|
A|--7-7-5-5-4-4-3-3--------------|--2-0-1-2----------------------|
E|-------------------------------|-------------------------------|
    1   2   3   4                   1   2   3+

[Verse] {Guitar 1}
    E                               E 
e|-------------------------------|-------------------------------|
B|-------------------------------|-------------------------------|
G|-------------------------------|-------------------------------|
D|------------------2------------|------------------2------------|
A|--2-2-4-4-5-5-2h4---2-0--------|--2-2-4-4-5-5-2h4---2-0--------|
E|--0-0-0-0-0-0------------------|--0-0-0-0-0-0------------------|
    1   2   3   4 

    E                               E 
e|-------------------------------|-------------------------------|
B|-------------------------------|-------------------------------|
G|-------------------------------|-------------------------------|
D|------------------2------------|------------------2------------|
A|--2-2-4-4-5-5-2h4---2-0--------|--2-2-4-4-5-5-2h4---2-0--------|
E|--0-0-0-0-0-0------------------|--0-0-0-0-0-0------------------|

    A                               A 
e|-------------------------------|-------------------------------|
B|-------------------------------|-------------------------------|
G|------------------2------------|------------------2------------|
D|--2-2-4-4-5-5-2h4---2-0--------|--2-2-4-4-5-5-2h4---2-0--------|
A|--0-0-0-0-0-0------------------|--0-0-0-0-0-0------------------|
E|-------------------------------|-------------------------------|

    E                               E 
e|-------------------------------|-------------------------------|
B|-------------------------------|-------------------------------|
G|-------------------------------|-------------------------------|
D|------------------2------------|------------------2------------|
A|--2-2-4-4-5-5-2h4---2-0--------|--2-2-4-4-5-5-2h4---2-0--------|
E|--0-0-0-0-0-0------------------|--0-0-0-0-0-0------------------|

    B7                               A 
e|-------------------------------|-------------------------------|
B|-------------------------------|-------------------------------|
G|------------------2------------|------------------2------------|
D|--4-4-6-6-4-4-4h6---4-0--------|--2-2-4-4-5-5-2h4---2-0--------|
A|--2-2-2-2-2-2------------------|--0-0-0-0-0-0------------------|
E|-------------------------------|-------------------------------|

    E                               B7 
e|-------------------------------|-----------2-2-0---------------|
B|-------------------------------|-----------0-0-0---------------|
G|-------------------------------|-----------2-2-0---------------|
D|------------------2------------|-------------------------------|
A|--2-2-4-4-5-5-2h4---2-0--------|--2-0-1-2----------------------|
E|--0-0-0-0-0-0------------------|-------------------------------|


[Verse] {Guitar 2}
    E                               E 
e|----0---0---0---0-0------------|----0---0---0---0-0------------|
B|----0---0---0---0-0------------|----0---0---0---0-0------------|
G|----1---1---1---1-1------------|----1---1---1---1-1------------|
D|--2---2---2---2----------------|--2---2---2---2----------------|
A|-------------------------------|-------------------------------|
E|-------------------------------|-------------------------------|
    1   2   3   4 +

    E                               E 
e|----0---0---0---0-0------------|----0---0---0---0-0------------|
B|----0---0---0---0-0------------|----0---0---0---0-0------------|
G|----1---1---1---1-1------------|----1---1---1---1-1------------|
D|--2---2---2---2----------------|--2---2---2---2----------------|
A|-------------------------------|-------------------------------|
E|-------------------------------|-------------------------------|

    A                               A 
e|----5---5---5---5-5------------|----5---5---5---5-5------------|
B|----5---5---5---5-5------------|----5---5---5---5-5------------|
G|----6---6---6---6-6------------|----6---6---6---6-6------------|
D|--7---7---7---7----------------|--7---7---7---7----------------|
A|-------------------------------|-------------------------------|
E|-------------------------------|-------------------------------|

    E                               E 
e|----0---0---0---0-0------------|----0---0---0---0-0------------|
B|----0---0---0---0-0------------|----0---0---0---0-0------------|
G|----1---1---1---1-1------------|----1---1---1---1-1------------|
D|--2---2---2---2----------------|--2---2---2---2----------------|
A|-------------------------------|-------------------------------|
E|-------------------------------|-------------------------------|

    B7                               A 
e|----7---7---7---7-7------------|----5---5---5---5-5------------|
B|----7---7---7---7-7------------|----5---5---5---5-5------------|
G|----8---8---8---8-8------------|----6---6---6---6-6------------|
D|--9---9---9---9----------------|--7---7---7---7----------------|
A|-------------------------------|-------------------------------|
E|-------------------------------|-------------------------------|

    E                               B7
e|-------------------------------|-----------2-2-0---------------|
B|-------------------------------|-----------0-0-0---------------|
G|-------------------------------|-----------2-2-0---------------|
D|-------------------------------|-------------------------------|
A|--7-7-5-5-4-4-3-3--------------|--2-0-1-2----------------------|
E|-------------------------------|-------------------------------|
    1   2   3   4                   1   2   3+            
Submit corrections


        Big Boss Man lessons Hard to play? Try these video lessons and learn fast Big Boss Man lessons
        
↑ Back to top | Tablatures and chords for acoustic guitar and electric guitar, ukulele, drums are parodies/interpretations of the original songs. You may use it for private study, scholarship, research or language learning purposes only