Home » J » Jimmy Eat World »

Jimmy Eat World - Your House Chords

Artists:  A B C D E F G H I J K L M N O P Q R S T U V W X Y Z # 

Your House Chords

(ver. 1) Click to play this song!
Jimmy Eat World

  "your house" =BLEED AMERICAN=

   !note!-you really have to listen to every note in the song!
                          -good luck!
 INTRO
       A
 E|----0----
 B|----0----
 G|----2----
 D|----2----
 A|----o----
 E|----x----
verses
       D    A -keep playing the chord,just change these notes
 E|----0----0-------0-------  in the "( )"
 B|----5----3(2)(0)-3(2)(0)-
 G|----2----2-------2-------
 D|----0----2-------2-------
 A|----x----o-------o-------
 E|----x----x-------x-------
 chorus#1
       G    A       D    Bm   G    A
 E|----2----0-------2----2----2(3)-0
 B|----3----3(2)(0)-3----3----3----3
 G|----0----2-------2----4----0----2
 D|----0----2-------0----4----0----2
 A|----x----0-------x----2----x----0
 E|----3----x-------x----x----3----x
  chorus#2
       G    A    D    Bm
 E|----2(3)-0----2----2----
 B|----3----3----3----3----x3,then do half the
 G|----0----2----2----4----chorus and go into
 D|----0----2----0----4----the bridge after the
 A|----x----0----0----2---- "A" chord
 E|----3----x----x----x----
 Bridge
       G    Em   D    G
 E|----x----x----x----x do    |then do "Em" and "G"
 B|----3----3----3----3  this | 4x when the words
 G|----2----0----2----2   x2  |start 
 D|----0----2----0----0       |
 A|----x----2----0----x       |
 E|----3----0----x----3       |
Chorus/outro

do chorus #2,but just keep going and fade out or stop! thats it!
            
Submit corrections

↑ Back to top | Tablatures and chords for acoustic guitar and electric guitar, ukulele, drums are parodies/interpretations of the original songs. You may use it for private study, scholarship, research or language learning purposes only