Home » J » Jimmy Cliff »

Jimmy Cliff - The Harder They Come Tabs

Artists:  A B C D E F G H I J K L M N O P Q R S T U V W X Y Z # 

The Harder They Come Tabs

(ver. 1) Click to play this song!
Jimmy Cliff
  Q=100(16=s16)
           $
              C    G          F    G          C    G
 4/4
  Gtr I (El. Gtr.)
  W           Q.   E +H       Q.   E +H       Q.   E +H
|----------||---------------|---------------|---------------|
|----------||-5----3-(3)----|-1----3-(3)----|-5----3-(3)----|
|----------||-5----4-(4)----|-2----4-(4)----|-5----4-(4)----|
|----------||-5----5-(5)----|-3----5-(5)----|-5----5-(5)----|
|----------||-3-------------|---------------|-3-------------|
|----------||---------------|---------------|---------------|


                   1st - 3rd Verses
  F    Fadd9        G
                    PM------------------------------------------------------|
  Q.   E +H         S S E S S E S S S S S S S S   S S E S S S S S S S S S S E
|------3-(3)----||------------------------------|------------------------------|
|-1----1-(1)----||o-----------------------------|------------------------------|
|-2----2-(2)----||------------------------------|------------------------------|
|-3----3-(3)----||------------------------------|------------------------------|
|---------------||o-----------------------------|------------------------------|
|---------------||--3-3-3-3-3-3---3---3-3-3-3-3-|-3-3-3-3-3-3-3---3---3-3-3-3--|
|
| Gtr II (El. Gtr.)
| W                 E   E E   E E   S S E   E     E   E E   E   E   S S E   E
|---------------||------------------------------|------------------------------|
|---------------||o-----3-----3-----3-3-----3---|-----3-----3-------3-3-----3--|
|---------------||------4-----4-----4-4-----4---|-----4-----4-------4-4-----4--|
|---------------||------5-----5-----5-5-----5---|-----5-----5-------5-5-----5--|
|---------------||o-----------------------------|------------------------------|
|---------------||------------------------------|------------------------------|


  F
  PM---------------------------
  S S E S S S S S S S S S S E
|-----------------------------|
|-----------------------------|
|-----------------------------|
|-3-3-3-3-3-3-3---3---3-3-3-3-|
|-----------------------------|
|-----------------------------|
|
| E   E E   E   E   S S E   E
|-----------------------------|
|-----1-----1-------1-1-----1-|
|-----2-----2-------2-2-----2-|
|-----3-----3-------3-3-----3-|
|-----------------------------|
|-----------------------------|


                                G
 ---------------------------------------------------------|
  S S E S S S S S S S S S S E   S S E S S E S S S S S S S S
|-----------------------------|-----------------------------|
|-----------------------------|-----------------------------|
|-----------------------------|-----------------------------|
|-3-3-3-3-3-3-3---3---3-3-3-3-|-----------------------------|
|-----------------------------|-----------------------------|
|-----------------------------|-3-3-3-3-3-3---3---3-3-3-3-3-|
|
| E   E E   E   E   S S E   E   E   E E   E E   S S E   E
|-----------------------------|-----------------------------|
|-----1-----1-------1-1-----1-|-----3-----3-----3-3-----3---|
|-----2-----2-------2-2-----2-|-----4-----4-----4-4-----4---|
|-----3-----3-------3-3-----3-|-----5-----5-----5-5-----5---|
|-----------------------------|-----------------------------|
|-----------------------------|-----------------------------|


                                F
  PM---------------------------------------------------------
  S S E S S S S S S S S S S E   S S E S S S S S S S S S S E
|-----------------------------|-----------------------------|
|-----------------------------|-----------------------------|
|-----------------------------|-----------------------------|
|-----------------------------|-3-3-3-3-3-3-3---3---3-3-3-3-|
|-----------------------------|-----------------------------|
|-3-3-3-3-3-3-3---3---3-3-3-3-|-----------------------------|
|
| E   E E   E   E   S S E   E   E   E E   E   E   S S E   E
|-----------------------------|-----------------------------|
|-----3-----3-------3-3-----3-|-----1-----1-------1-1-----1-|
|-----4-----4-------4-4-----4-|-----2-----2-------2-2-----2-|
|-----5-----5-------5-5-----5-|-----3-----3-------3-3-----3-|
|-----------------------------|-----------------------------|
|-----------------------------|-----------------------------|


 ---------------------------|
  S S E S S S S S S S S S S E
|-----------------------------||
|-----------------------------||
|-----------------------------||
|-3-3-3-3-3-3-3---3---3-3-3-3-||
|-----------------------------||
|-----------------------------||
|
| E   E E   E   E   S S E   E
|-----------------------------||
|-----1-----1-------1-1-----1-||
|-----2-----2-------2-2-----2-||
|-----3-----3-------3-3-----3-||
|-----------------------------||
|-----------------------------||


 Chorus
  E
  PM-------------------------------------------------------
  S S E S S E S S S S S S E   S S E S S S S S S S S S S E
|---------------------------|-----------------------------|
|---------------------------|-----------------------------|
|---------------------------|-----------------------------|
|-2-2-2-2-2-2---2---2-2-2-2-|-2-2-2-2-2-2-2---2---2-2-2-2-|
|---------------------------|-----------------------------|
|---------------------------|-----------------------------|
|
| E   E E   E E   S S E   E   E   E E   E   E   S S E   E
|---------------------------|-----------------------------|
|-----0-----0-----0-0-----0-|-----0-----0-------0-0-----0-|
|-----1-----1-----1-1-----1-|-----1-----1-------1-1-----1-|
|-----2-----2-----2-2-----2-|-----2-----2-------2-2-----2-|
|-----2-----2-----2-2-----2-|-----2-----2-------2-2-----2-|
|---------------------------|-----------------------------|


  Am
 -------------------------------|
  S S S S S S S S S S S S S S S S
|-----------------------------------|
|-----------------------------------|
|-----------------------------------|
|-----------------2-2-2-2-2-2-2-2---|
|-0-0-0-0-0-0-0-0-------------------|
|-----------------------------------|
|
| E   E   E   E   E   S S E   E
|-----------------------------------|
|-----1-------1-------1-1-----1-----|
|-----2-------2-------2-2-----2-----|
|-----2-------2-------2-2-----2-----|
|-----------------------------------|
|-----------------------------------|


  PM-------------------------------
  S S S S S S S S S S S S S S S S
|---------------------------------|
|---------------------------------|
|---------------------------------|
|-5-5-5-5-5-5-5-5-2-2-2-2-2-2-2-2-|
|---------------------------------|
|---------------------------------|
|
| E   E   E   E   E   S S E   E
|---------------------------------|
|-----1-------1-------1-1-----1---|
|-----2-------2-------2-2-----2---|
|-----2-------2-------2-2-----2---|
|---------------------------------|
|---------------------------------|


  G                             F
 ---------------------------------------------------------|
  S S E S S S S S S S S S S E   S S E S S S S S S S S S S E
|-----------------------------|------------------------------|
|-----------------------------|------------------------------|
|-----------------------------|------------------------------|
|-----------------------------|-3-3-3-3-3-3-3---3---3-3-3-3--|
|-----------------------------|------------------------------|
|-3-3-3-3-3-3-3---3---3-3-3-3-|------------------------------|
|
| E   E E   E   E   S S E   E   E   E E   E   E   S S E   E
|-----------------------------|------------------------------|
|-----3-----3-------3-3-----3-|-----1-----1-------1-1-----1--|
|-----4-----4-------4-4-----4-|-----2-----2-------2-2-----2--|
|-----5-----5-------5-5-----5-|-----3-----3-------3-3-----3--|
|-----------------------------|------------------------------|
|-----------------------------|------------------------------|


  C
  PM-------------------------------
  S S S S S S S S S S S S S S S S
|---------------------------------|
|---------------------------------|
|---------------------------------|
|-------------------2---2-2-2-2-2-|
|-3-3-3-3-3-3-3-3-----------------|
|---------------------------------|
|
| E   E   E   E   E   S S E   E
|---------------------------------|
|-----5-------5-------5-5-----5---|
|-----5-------5-------5-5-----5---|
|-----5-------5-------5-5-----5---|
|-----3-------3-------3-3-----3---|
|---------------------------------|


                                    G
 -------------------------------------------------------------|
  |-3-|   |-3-|
  S S S E S S S E S S S S S S S S   S S E S S S S S S S S S S E
|---------------------------------|-------------------------------|
|---------------------------------|-------------------------------|
|---------------------------------|-------------------------------|
|---------------------------------|-------------------------------|
|-3-3-3-3-3-3-3-3---3---3-3-3-3-3-|-------------------------------|
|---------------------------------|-3-3-3-3-3-3-3---3---3-3-3-3---|
|
| E     E E     E E   S S E   E     E   E E   E   E   S S E   E
|---------------------------------|-------------------------------|
|-------5-------5-----5-5-----5---|-----3-----3-------3-3-----3---|
|-------5-------5-----5-5-----5---|-----4-----4-------4-4-----4---|
|-------5-------5-----5-5-----5---|-----5-----5-------5-5-----5---|
|-------3-------3-----3-3-----3---|-------------------------------|
|---------------------------------|-------------------------------|


                                                         To Coda
  F                             C
  PM------------------------------------------|   PM--------------
  S S E S S S S S S S S S S E   S S S S S S S S S S S S S S S S
|-----------------------------|----------------------------------|
|-----------------------------|----------------------------------|
|-----------------------------|----------------------------------|
|-3-3-3-3-3-3-3---3---3-3-3-3-|----------------------------------|
|-----------------------------|-3-3-3-3-3-3-3-3---3---3-3-3-3-3--|
|-----------------------------|----------------------------------|
|
| E   E E   E   E   S S E   E   E   E   E   E   E   S S E   E
|-----------------------------|----------------------------------|
|-----1-----1-------1-1-----1-|-----5-------5-------5-5-----5----|
|-----2-----2-------2-2-----2-|-----5-------5-------5-5-----5----|
|-----2-----2-------2-2-----2-|-----5-------5-------5-5-----5----|
|-----------------------------|-----3-------3-------3-3-----3----|
|-----------------------------|----------------------------------|


 1.
 ---------------|   PM----------|
  S S S S S S S S S S S S S S S S
|-----------------------------------||
|----------------------------------o||
|-----------------------------------||
|-----------------------------------||
|-3-3-3-3-3-3-3-3---3---3-3-3-3-3--o||
|-----------------------------------||
|
| E   E   E   E   E   S S E   E
|-----------------------------------||
|-----5-------5-------5-5-----5----o||
|-----5-------5-------5-5-----5-----||
|-----5-------5-------5-5-----5-----||
|-----3-------3-------3-3-----3----o||
|-----------------------------------||


  2.
                      D.S. al Coda &
  PM------------|   PM---------------
  S S S S S S S S S S S S S S S S
|----------------------------------||
|----------------------------------||
|----------------------------------||
|----------------------------------||
|-3-3-3-3-3-3-3-3---3---3-3-3-3-3--||
|----------------------------------||
|
| E   E   E   E   E   S S E   E
|----------------------------------||
|-----5-------5-------5-5-----5----||
|-----5-------5-------5-5-----5----||
|-----5-------5-------5-5-----5----||
|-----3-------3-------3-3-----3----||
|----------------------------------||


                                    Outro
  C                                  G
 ---------------|   PM-----------------------------------------|
  S S S S S S S S S S S S S S S S    S S E S S S S S S S S S S E
|---------------------------------||------------------------------|
|---------------------------------||------------------------------|
|---------------------------------||------------------------------|
|---------------------------------||------------------------------|
|-3-3-3-3-3-3-3-3---3---3-3-3-3-3-||------------------------------|
|---------------------------------||-3-3-3-3-3-3-3---3---3-3-3-3--|
|
| E   E   E   E   E   S S E   E      E   E E   E   S S S S E   E
|-----------------5---------------||------------------------------|
|-----5-------5---------5---------||-----3-----3---3-3-3-5-3---5--|
|-----5-------5---------------5---||-----4-----4---4-4-4-4-4---4--|
|-----5-------5-------------------||-----5-----5------------------|
|-----3-------3-------------------||------------------------------|
|---------------------------------||------------------------------|


  F                             C
  PM------------------------------------------|    PM-------------
  S S E S S S S S S S S S S E   S S S S S S S S S  S S S S S S S
|-----------------------------|----------------------------------|
|-----------------------------|----------------------------------|
|-----------------------------|----------------------------------|
|-3-3-3-3-3-3-3---3---3-3-3-3-|----------------------------------|
|-----------------------------|-3-3-3-3-3-3-3-3----3---3-3-3-3-3-|
|-----------------------------|----------------------------------|
|
| E   E E   E   S S S S E   E   E   E   E   E   E.     S E   E
|-----------------------------|------------------------5---------|
|-----1-----1---1-1-1-3-1-----|-----5-------5----------------5---|
|-----2-----2---2-2-2-2-2---2-|-----5-------5----------------5---|
|-----3-----3-----------------|-----5-------5----------------5---|
|-----------------------------|-----3-------3--------------------|
|-----------------------------|----------------------------------|


 ---------------|   PM----------|
  S S S S S S S S S S S S S S S S
|-----------------------------------|
|-----------------------------------|
|-----------------------------------|
|-----------------------------------|
|-3-3-3-3-3-3-3-3---3---3-3-3-3-3---|
|-----------------------------------|
|
| E   E   E   E   E   S S E   E
|-----------------------------------|
|-----5-------5-------5-5-----5-----|
|-----5-------5-------5-5-----5-----|
|-----5-------5-------5-5-----5-----|
|-----3-------3-------3-3-----3-----|
|-----------------------------------|


  G                             F
  PM------------------------------------------------------|
  S S E S S S S S S S S S S E   S S E S S S S S S S S S S E
|-----------------------------|-----------------------------|
|-----------------------------|-----------------------------|
|-----------------------------|-----------------------------|
|-----------------------------|-3-3-3-3-3-3-3---3---3-3-3-3-|
|-----------------------------|-----------------------------|
|-3-3-3-3-3-3-3---3---3-3-3-3-|-----------------------------|
|
| E   E E   E   S S S S E   E   E   E E   E   S S S S E   E
|-----------------------------|-----------------------------|
|-----3-----3---3-3-3-5-3---5-|-----1-----1---1-1-1-3-1-----|
|-----4-----4---4-4-4-4-4---4-|-----2-----2---2-2-2-2-2---2-|
|-----5-----5-----------------|-----3-----3-----------------|
|-----------------------------|-----------------------------|
|-----------------------------|-----------------------------|


  C
  PM------------|    PM----------------------------|   PM----------|
  S S S S S S S S S  S S S S S S S   S S S S S S S S S S S S S S S S
|----------------------------------|---------------------------------*|
|----------------------------------|---------------------------------*|
|----------------------------------|---------------------------------*|
|----------------------------------|---------------------------------*|
|-3-3-3-3-3-3-3-3----3---3-3-3-3-3-|-3-3-3-3-3-3-3-3---3---3-3-3-3-3-*|
|----------------------------------|---------------------------------*|
|
| E   E   E   E   E.     S E   E     E   E   E   E   E   S S E   E
|------------------------5---------|---------------------------------*|
|-----5-------5----------------5---|-----5-------5-------5-5-----5---*|
|-----5-------5----------------5---|-----5-------5-------5-5-----5---*|
|-----5-------5----------------5---|-----5-------5-------5-5-----5---*|
|-----3-------3--------------------|-----3-------3-------3-3-----3---*|
|----------------------------------|---------------------------------*|            
Submit corrections

↑ Back to top | Tablatures and chords for acoustic guitar and electric guitar, ukulele, drums are parodies/interpretations of the original songs. You may use it for private study, scholarship, research or language learning purposes only