» » »

Jim Croce - New York Is Not My Home Tabs

Artists:  A B C D E F G H I J K L M N O P Q R S T U V W X Y Z # 

New York Is Not My Home Tabs

(ver. 1) Click to play this song!
Jim Croce
 Rating:
4/5 (4 votes)

 New York Is Not My Home  lessons Tabs too difficult? Try these video lessons and learn fast
 
                e|---------------------------------------------------------------------------|
B|-----0----0-------0----0---------0----0---------0-----0---------7------7---|
G|---6----6---6---6----6-----6---6----6-----6---6-----6---------7------7-----|
D|-7----7---7---6----6-----6---5----5-----5---4------------------------------|
A|--------------------------------------------------4----------------9-------|
E|--------------------------------------------------------8---7------------7-|

   begun to doubt all the things that we me
   empty faces of the people of the night
e|---------------------------------------------------------------------------|
B|--------0-----0---------2-----2--------------------------------------------|
G|------1-----1---------2-----2-----2----------------------------------------|
D|----------0-----0-----------------------------H--P-------------------------|
A|--------------------0-----0-----0--------0--2--4--2--0---------------------|
E|-0--1--------------------------------0-2---------------2---0---------------|

  something is just not right  that's the reason that I gotta get out of here
                               I         am            so         alone
                               don't you know that I gotta get out of here
e|---------------------------------------------------------------------------|
B|-------3-----------3-------------2-------2----------------2------2---------|
G|----2----------2--------------2-------2---------2-------2-----2-------2----|
D|-0--------0----------0-------------------------------------4---------------|
A|---------------------------0-------0--------0---------------------4--------|
E|------------------------------------------------------2--------------------|

  cause New York's not my home

e|------2----------------------------------------------0---------------------|
B|------3-------------------------2---3-2-0---------0------0-----------------|
G|------2----------------------2------------2- --1---------------1-----------|
D|------0-----------------------------------------------------2--------------|
A|-0------------------------0-------0----------------------------------------|
E|--------------------------------------------0---------0--------------------|

e|----------------------------0--------------------------------------------------|
B|-------2----3--2--0-------0-------0--------------------------------------------|
G|----2---------------2---1---------------1--------------------------------------|
D|-------------------------------------2-----------------------------------------|
A|--0------0---------------------------------------------------------------------|
E|----------------------0--------0-----------------------------------------------|
            
Submit corrections


        New York Is Not My Home  lessons Hard to play? Try these video lessons and learn fast New York Is Not My Home  lessons
        
↑ Back to top | Tablatures and chords for acoustic guitar and electric guitar, ukulele, drums are parodies/interpretations of the original songs. You may use it for private study, scholarship, research or language learning purposes only