» » »

Jethro Tull - Minstrel In The Gallery Tabs

Artists:  A B C D E F G H I J K L M N O P Q R S T U V W X Y Z # 

Minstrel In The Gallery Tabs

(ver. 1) Click to play this song!
Jethro Tull
 Rating:
4/5 (4 votes)
    Minstrel In The Gallery lessons Tabs too difficult? Try these video lessons and learn fast
                Jethro Tull
Minstrel in the Gallery


Main Riff: 
E----------------------------------------- 
B-----------------------------0----------- 
G------------0----2-----4---4---2---0---2- 
D---0----2--------2---------------------2- 
A-----------------0---------------------0- 
E-----------------------------------------

E----------------------------------------- 
B----------------------------------------- 
G-------0-2--------0--2--0--2-4p2p0h2----- 
D---0-2-------0-2-----2--0--0------------- 
A-----------0---------0-------------------
E-----------------------------------------


Verse 1
Esus4-E               A-B    G-D                            A 
      The minstrel in the gallery looked down upon the smiling faces 
A-E             A-B                  G-D                   A 
 He met the gazes     observed the spaces between the old men's cackle 
A-E                 A-B                G-D                        A 
Then he brewed a song of love and hatred  obliquesuggestions and he waited 
A-E          A-B                G-D              A 
He polarized the pumpkin-eaters     static-humming panel-beaters     
  

Bm    E             A  F#m    D          E            F#m 
The minstrel in the gallery looked down on the rabbit-run. 
D      E             A    F#m       D     E            F#m E 
And threw away his looking-glass   saw his face in everyone. 


Verse 2
He pacified the nappy-suffering, infant-bleating one-line jokers     
T.V. documentary makers, overfed and undertakers 
Sunday paper backgammon players  family-scarred and women-haters. 
Then he called the band down to the stage 
and helooked at all the friends he'd made. 


The minstrel in the gallery looked down on the rabbit-run. 
And threw away his looking-glass, saw his face in everyone. 


The minstrel in the gallery yea yes
Looked down upon the smiling faces




Yost with the Most
            
Submit corrections

↑ Back to top | Tablatures and chords for acoustic guitar and electric guitar, ukulele, drums are parodies/interpretations of the original songs. You may use it for private study, scholarship, research or language learning purposes only