» » »

Jesus And Mary Chain - You Trip Me Up Chords

Artists:  A B C D E F G H I J K L M N O P Q R S T U V W X Y Z # 

You Trip Me Up Chords

(ver. 1) Click to play this song!
Jesus And Mary Chain
 Rating:
2.7/5 (21 vote)

 You Trip Me Up  lessons Tabs too difficult? Try these video lessons and learn fast
 
                
-INTRO-

bass playing:

G|-------------------------------------------|
D|-------------------------------------------|
A|---0-0-0-0-0-0-0-0-5-5-5-5-7-7-7-7---------|
E|-------------------------------------------|


A          D
Sometimes
E      A        D
I walk sideways
E    A         D
To avoid you
     E       A          D    E 
When I've annoyed you

A            D
Love's like
 E          A
The mighty ocean
E         A         D
When it's frozen-
     E       A       D
That is your heart

     E       A      D
What would I be
     E        A       D
If I could be free
           E    A    D
I couldn't even walk
    E       A      D
You trip me up

        E           A             D
But you break me in two
        E         A         D
And you throw me away
        E          A           D
And you spit on my head
    E       A       D    E
You trip me up


-SOLO-

e|------------------------------------------------------------------------------------|
B|------------------------------------------------------------------------------------|
G|-2-2-2-2-2-4-6-2-2--2-2-4-6-2-2-222-6-6-6-6-4-4-4-2--2-2-2-4-6-2-2--2-2-4-6-2-2-222-|
D|------------------------------------------------------------------------------------|
A|------------------------------------------------------------------------------------|
E|------------------------------------------------------------------------------------|

e|------------------------------|
B|-12-12-12-9-9-7-7------2~-----|
G|------------------2~----------|
D|----------------------------2~|
A|------------------------------|
E|------------------------------|

E              
                    A    D
And you break me in two
        E        A        D
And you throw me away
         E      A     D
Knock me on my back
            E       A       D    E
I'll send a heart attack

A                    D     E
I'd like to trip you up
A                    D     E
I'd like to trip you up
A                    D     E
I'd like to trip you up
A                    D     E
I'd like to trip you up


during the last part of the song just spam this version of the A- chord:

e|---12---|
B|---14---|
G|---14---|
D|---14---|
A|---0----|
E|---x----|


like this:

A
I'd like to trip
A
I'd like to trip
A
I'd like to trip you up
A
I'd like to trip you up            
Submit corrections


        You Trip Me Up  lessons Hard to play? Try these video lessons and learn fast You Trip Me Up  lessons
        
↑ Back to top | Tablatures and chords for acoustic guitar and electric guitar, ukulele, drums are parodies/interpretations of the original songs. You may use it for private study, scholarship, research or language learning purposes only