» » »

Jesus And Mary Chain - Uv Ray Tabs

Artists:  A B C D E F G H I J K L M N O P Q R S T U V W X Y Z # 

Uv Ray Tabs

(ver. 1) Click to play this song!
Jesus And Mary Chain
 Rating:
4/5 (4 votes)


 Uv Ray  lessons Tabs too difficult? Try these video lessons and learn fast
 
                Tuning: EADGBe


e|----------------------------------------------------------------|
B|----------------------------------------------------------------|
G|----------------------------------------------------------------|
D|-4-4-----------------------------4-4----------------------------|
A|-4-4-----------------------------4-4----------------------------|
E|-2-2-----------------------------2-2----------------------------|
       Ughhh...


e|----------------------------------------------------------------|
B|----------------------------------------------------------------|
G|----------------------------------------------------------------|
D|-4-4-----------------------------4-4----------------------------|
A|-4-4-----------------------------4-4----------------------------|
E|-2-2-----------------------------2-2----------------------------|
  Treasure in the pit...              Unpeel ice cool velvet skin


e|----------------------------------------------------------------|
B|----------------------------------------------------------------|
G|----------------------------------------------------------------|
D|-4-4-----------------------------4-4----------------------------|
A|-4-4-----------------------------4-4----------------------------|
E|-2-2-----------------------------2-2----------------------------|
     Junkies crash in a chemical kiss  TV poison tastes like this


e|----------------------------------------------------------------|
B|-----x-x-x-x-x-x-x-x-x-x-x-x-x-x-----x-x-x-x-x-x-x-x-x-x-x-x-x-x|
G|-----x-x-x-x-x-x-x-x-x-x-x-x-x-x-----x-x-x-x-x-x-x-x-x-x-x-x-x-x|
D|-4-4-x-x-x-x-x-x-x-x-x-x-x-x-x-x-4-4-x-x-x-x-x-x-x-x-x-x-x-x-x-x|
A|-4-4-x-x-x-x-x-x-x-x-x-x-x-x-x-x-4-4-x-x-x-x-x-x-x-x-x-x-x-x-x-x|
E|-2-2-----------------------------2-2----------------------------|


e|----------------------------------------------------------------|
B|----------------------------------------------------------------|
G|----------------------------------------------------------------|
D|----------------------------------------------------------------|
A|---------0-2-0-/4----4---2-0-------------0-2-0-/4----4---2-0----|
E|-2---2-2---------------------2-0-2---2-2---------------------2-0|
 |                                                                |
e|----------------------------------------------------------------|
B|----------------------------------------------------------------|
G|----------------------------------------------------------------|
D|---------7/9\7-/11---11--9\7-------------7/9\7-/11---11--9\7----|
A|-9---9-9---------------------9\7/9---9-9---------------------9\7|
E|----------------------------------------------------------------|


e|----------------------------------------------------------------|
B|----------------------------------------------------------------|
G|----------------------------------------------------------------|
D|-4-4-----------------------------4-4----------------------------|
A|-4-4-----------------------------4-4----------------------------|
E|-2-2-----------------------------2-2----------------------------|
     Broken down jesus with a taste... Ice cool hip swinger moves...


e|----------------------------------------------------------------|
B|----------------------------------------------------------------|
G|----------------------------------------------------------------|
D|-4-4-----------------------------4-4----------------------------|
A|-4-4-----------------------------4-4----------------------------|
E|-2-2-----------------------------2-2----------------------------|
     Tear-stained nightmares in the... Sick sick nightmares just won't...


e|----------------------------------------------------------------|
B|----------------------------------------------------------------|
G|----------------------------------------------------------------|
D|----------------------------------------------------------------|
A|---------0-2-0-/4------------------------0-2-0-/4---------------|
E|-2---2-2-------------------------2---2-2------------------------|
 |                                                                |
e|----------------------------------------------------------------|
B|----------------------------------------------------------------|
G|----------------------------------------------------------------|
D|---------7/9\7-/11-----------------------7/9\7-/11--------------|
A|-9---9-9-------------------------9---9-9------------------------|
E|----------------------------------------------------------------|
                    You gotta kick it...            You gotta take it...


e|----------------------------------------------------------------|
B|----------------------------------------------------------------|
G|----------------------------------------------------------------|
D|----------------------------------------------------------------|
A|---------0-2-0-/4------------------------0-2-0-/4---------------|
E|-2---2-2-------------------------2---2-2------------------------|
 |                                                                |
e|----------------------------------------------------------------|
B|----------------------------------------------------------------|
G|----------------------------------------------------------------|
D|---------7/9\7-/11-----------------------7/9\7-/11--------------|
A|-9---9-9-------------------------9---9-9------------------------|
E|----------------------------------------------------------------|
                    You gotta walk before...          You're getting fun...


e|----------------------------------------------------------------|
B|----(x-x-x-x-x-x-x-x-x-x-x-x-x-x)---(x-x-x-x-x-x-x-x-x-x-x-x-x-x)
G|----(x-x-x-x-x-x-x-x-x-x-x-x-x-x)---(x-x-x-x-x-x-x-x-x-x-x-x-x-x)
D|-4-4-4-4-4-4-4-4-4-4-4-4-4-4-4-4-4-4-4-4-4-4-4-4-4-4-4-4-4-4-4-4|
A|-4-4-4-4-4-4-4-4-4-4-4-4-4-4-4-4-4-4-4-4-4-4-4-4-4-4-4-4-4-4-4-4|
E|-2-2-2-2-2-2-2-2-2-2-2-2-2-2-2-2-2-2-2-2-2-2-2-2-2-2-2-2-2-2-2-2|


e|----------------------------------------------------------------|
B|----(x-x-x-x-x-x-x-x-x-x-x-x-x-x)---(x-x-x-x-x-x-x-x-x-x-x-x-x-x)
G|----(x-x-x-x-x-x-x-x-x-x-x-x-x-x)---(x-x-x-x-x-x-x-x-x-x-x-x-x-x)
D|-7-7-7-7-7-7-7-7-7-7-7-7-7-7-7-7-9-9-9-9-9-9-9-9-9-9-9-9-9-9-9-9|
A|-7-7-7-7-7-7-7-7-7-7-7-7-7-7-7-7-9-9-9-9-9-9-9-9-9-9-9-9-9-9-9-9|
E|-5-5-5-5-5-5-5-5-5-5-5-5-5-5-5-5-7-7-7-7-7-7-7-7-7-7-7-7-7-7-7-7|


e|----------------------------------------------------------------|
B|----(x-x-x-x-x-x-x-x-x-x-x-x-x-x)---(x-x-x-x-x-x-x-x-x-x-x-x-x-x)
G|----(x-x-x-x-x-x-x-x-x-x-x-x-x-x)---(x-x-x-x-x-x-x-x-x-x-x-x-x-x)
D|-4-4-4-4-4-4-4-4-4-4-4-4-4-4-4-4-4-4-4-4-4-4-4-4-4-4-4-4-4-4-4-4|
A|-4-4-4-4-4-4-4-4-4-4-4-4-4-4-4-4-4-4-4-4-4-4-4-4-4-4-4-4-4-4-4-4|
E|-2-2-2-2-2-2-2-2-2-2-2-2-2-2-2-2-2-2-2-2-2-2-2-2-2-2-2-2-2-2-2-2|


e|----------------------------------------------------------------|
B|----(x-x-x-x-x-x-x-x-x-x-x-x-x-x)---(x-x-x-x-x-x-x-x-x-x-x-x-x-x)
G|----(x-x-x-x-x-x-x-x-x-x-x-x-x-x)---(x-x-x-x-x-x-x-x-x-x-x-x-x-x)
D|-7-7-7-7-7-7-7-7-7-7-7-7-7-7-7-7-9-9-9-9-9-9-9-9-9-9-9-9-9-9-9-9|
A|-7-7-7-7-7-7-7-7-7-7-7-7-7-7-7-7-9-9-9-9-9-9-9-9-9-9-9-9-9-9-9-9|
E|-5-5-5-5-5-5-5-5-5-5-5-5-5-5-5-5-7-7-7-7-7-7-7-7-7-7-7-7-7-7-7-7|


e|----------------------------------------------------------------|
B|----(x-x-x-x-x-x-x-x-x-x-x-x-x-x)---(x-x-x-x-x-x-x-x-x-x-x-x-x-x)
G|----(x-x-x-x-x-x-x-x-x-x-x-x-x-x)---(x-x-x-x-x-x-x-x-x-x-x-x-x-x)
D|-4-4-4-4-4-4-4-4-4-4-4-4-4-4-4-4-4-4-4-4-4-4-4-4-4-4-4-4-4-4-4-4|
A|-4-4-4-4-4-4-4-4-4-4-4-4-4-4-4-4-4-4-4-4-4-4-4-4-4-4-4-4-4-4-4-4|
E|-2-2-2-2-2-2-2-2-2-2-2-2-2-2-2-2-2-2-2-2-2-2-2-2-2-2-2-2-2-2-2-2|


e|----------------------------------------------------------------|
B|----(x-x-x-x-x-x-x-x-x-x-x-x-x-x)---(x-x-x-x-x-x-x-x-x-x-x-x-x-x)
G|----(x-x-x-x-x-x-x-x-x-x-x-x-x-x)---(x-x-x-x-x-x-x-x-x-x-x-x-x-x)
D|-7-7-7-7-7-7-7-7-7-7-7-7-7-7-7-7-9-9-9-9-9-9-9-9-9-9-9-9-9-9-9-9|
A|-7-7-7-7-7-7-7-7-7-7-7-7-7-7-7-7-9-9-9-9-9-9-9-9-9-9-9-9-9-9-9-9|
E|-5-5-5-5-5-5-5-5-5-5-5-5-5-5-5-5-7-7-7-7-7-7-7-7-7-7-7-7-7-7-7-7|


e|----------------------------------------------------------------|
B|----(x-x-x-x-x-x-x-x-x-x-x-x-x-x)---(x-x-x-x-x-x-x-x-x-x-x-x-x-x)
G|----(x-x-x-x-x-x-x-x-x-x-x-x-x-x)---(x-x-x-x-x-x-x-x-x-x-x-x-x-x)
D|-4--(x-x-x-x-x-x-x-x-x-x-x-x-x-x)4--(x-x-x-x-x-x-x-x-x-x-x-x-x-x)
A|-4~~~~~~~~~~~~~~~~~--------------4~~~~~~~~~~~~~~~~~-------------|
E|-2~~~~~~~~~~~~~~~~~--------------2~~~~~~~~~~~~~~~~~-------------|


e|----------------------------------------------------------------|
B|----(x-x-x-x-x-x-x-x-x-x-x-x-x-x)---(x-x-x-x-x-x-x-x-x-x-x-x-x-x)
G|----(x-x-x-x-x-x-x-x-x-x-x-x-x-x)---(x-x-x-x-x-x-x-x-x-x-x-x-x-x)
D|-7--(x-x-x-x-x-x-x-x-x-x-x-x-x-x)9--(x-x-x-x-x-x-x-x-x-x-x-x-x-x)
A|-7~~~~~~~~~~~~~~~~~--------------9~~~~~~~~~~~~~~~~~-------------|
E|-5~~~~~~~~~~~~~~~~~--------------7~~~~~~~~~~~~~~~~~-------------|


e|----------------------------------------------------------------|
B|----------------------------------------------------------------|
G|----------------------------------------------------------------|
D|-4-4-----------------------------4-4----------------------------|
A|-4-4-----------------------------4-4----------------------------|
E|-2-2-----------------------------2-2----------------------------|
  Treasure in the pit...              Unpeel ice cool velvet skin


e|----------------------------------------------------------------|
B|----------------------------------------------------------------|
G|----------------------------------------------------------------|
D|-4-4-----------------------------4-4----------------------------|
A|-4-4-----------------------------4-4----------------------------|
E|-2-2-----------------------------2-2----------------------------|
     Junkies crash in a chemical kiss  TV poison tastes like this


e|----------------------------------------------------------------|
B|----------------------------------------------------------------|
G|----------------------------------------------------------------|
D|----------------------------------------------------------------|
A|---------0-2-0-/4------------------------0-2-0-/4---------------|
E|-2---2-2-------------------------2---2-2------------------------|
 |                                                                |
e|----------------------------------------------------------------|
B|----------------------------------------------------------------|
G|----------------------------------------------------------------|
D|---------7/9\7-/11-----------------------7/9\7-/11--------------|
A|-9---9-9-------------------------9---9-9------------------------|
E|----------------------------------------------------------------|
                    You gotta kick it...            You gotta take it...

e|----------------------------------------------------------------|
B|----------------------------------------------------------------|
G|----------------------------------------------------------------|
D|----------------------------------------------------------------|
A|---------0-2-0-/4------------------------0-2-0-/4---------------|
E|-2---2-2-------------------------2---2-2------------------------|
 |                                                                |
e|----------------------------------------------------------------|
B|----------------------------------------------------------------|
G|----------------------------------------------------------------|
D|---------7/9\7-/11-----------------------7/9\7-/11--------------|
A|-9---9-9-------------------------9---9-9------------------------|
E|----------------------------------------------------------------|
                    You gotta walk before...          You're getting fun...

e|----------------------------------------------------------------|
B|----(x-x-x-x-x-x-x-x-x-x-x-x-x-x)---(x-x-x-x-x-x-x-x-x-x-x-x-x-x)
G|----(x-x-x-x-x-x-x-x-x-x-x-x-x-x)---(x-x-x-x-x-x-x-x-x-x-x-x-x-x)
D|-4-4-4-4-4-4-4-4-4-4-4-4-4-4-4-4-4-4-4-4-4-4-4-4-4-4-4-4-4-4-4-4|
A|-4-4-4-4-4-4-4-4-4-4-4-4-4-4-4-4-4-4-4-4-4-4-4-4-4-4-4-4-4-4-4-4|
E|-2-2-2-2-2-2-2-2-2-2-2-2-2-2-2-2-2-2-2-2-2-2-2-2-2-2-2-2-2-2-2-2|


e|----------------------------------------------------------------|
B|----(x-x-x-x-x-x-x-x-x-x-x-x-x-x)---(x-x-x-x-x-x-x-x-x-x-x-x-x-x)
G|----(x-x-x-x-x-x-x-x-x-x-x-x-x-x)---(x-x-x-x-x-x-x-x-x-x-x-x-x-x)
D|-7-7-7-7-7-7-7-7-7-7-7-7-7-7-7-7-9-9-9-9-9-9-9-9-9-9-9-9-9-9-9-9|
A|-7-7-7-7-7-7-7-7-7-7-7-7-7-7-7-7-9-9-9-9-9-9-9-9-9-9-9-9-9-9-9-9|
E|-5-5-5-5-5-5-5-5-5-5-5-5-5-5-5-5-7-7-7-7-7-7-7-7-7-7-7-7-7-7-7-7|


e|----------------------------------------------------------------|
B|----(x-x-x-x-x-x-x-x-x-x-x-x-x-x)---(x-x-x-x-x-x-x-x-x-x-x-x-x-x)
G|----(x-x-x-x-x-x-x-x-x-x-x-x-x-x)---(x-x-x-x-x-x-x-x-x-x-x-x-x-x)
D|-4-4-4-4-4-4-4-4-4-4-4-4-4-4-4-4-4-4-4-4-4-4-4-4-4-4-4-4-4-4-4-4|
A|-4-4-4-4-4-4-4-4-4-4-4-4-4-4-4-4-4-4-4-4-4-4-4-4-4-4-4-4-4-4-4-4|
E|-2-2-2-2-2-2-2-2-2-2-2-2-2-2-2-2-2-2-2-2-2-2-2-2-2-2-2-2-2-2-2-2|


e|----------------------------------------------------------------|
B|----(x-x-x-x-x-x-x-x-x-x-x-x-x-x)---(x-x-x-x-x-x-x-x-x-x-x-x-x-x)
G|----(x-x-x-x-x-x-x-x-x-x-x-x-x-x)---(x-x-x-x-x-x-x-x-x-x-x-x-x-x)
D|-7-7-7-7-7-7-7-7-7-7-7-7-7-7-7-7-9-9-9-9-9-9-9-9-9-9-9-9-9-9-9-9|
A|-7-7-7-7-7-7-7-7-7-7-7-7-7-7-7-7-9-9-9-9-9-9-9-9-9-9-9-9-9-9-9-9|
E|-5-5-5-5-5-5-5-5-5-5-5-5-5-5-5-5-7-7-7-7-7-7-7-7-7-7-7-7-7-7-7-7|


e|----------------------------------------------------------------|
B|----(x-x-x-x-x-x-x-x-x-x-x-x-x-x)---(x-x-x-x-x-x-x-x-x-x-x-x-x-x)
G|----(x-x-x-x-x-x-x-x-x-x-x-x-x-x)---(x-x-x-x-x-x-x-x-x-x-x-x-x-x)
D|-4-4-4-4-4-4-4-4-4-4-4-4-4-4-4-4-4-4-4-4-4-4-4-4-4-4-4-4-4-4-4-4|
A|-4-4-4-4-4-4-4-4-4-4-4-4-4-4-4-4-4-4-4-4-4-4-4-4-4-4-4-4-4-4-4-4|
E|-2-2-2-2-2-2-2-2-2-2-2-2-2-2-2-2-2-2-2-2-2-2-2-2-2-2-2-2-2-2-2-2|


e|----------------------------------------------------------------|
B|----(x-x-x-x-x-x-x-x-x-x-x-x-x-x)---(x-x-x-x-x-x-x-x-x-x-x-x-x-x)
G|----(x-x-x-x-x-x-x-x-x-x-x-x-x-x)---(x-x-x-x-x-x-x-x-x-x-x-x-x-x)
D|-7-7-7-7-7-7-7-7-7-7-7-7-7-7-7-7-9-9-9-9-9-9-9-9-9-9-9-9-9-9-9-9|
A|-7-7-7-7-7-7-7-7-7-7-7-7-7-7-7-7-9-9-9-9-9-9-9-9-9-9-9-9-9-9-9-9|
E|-5-5-5-5-5-5-5-5-5-5-5-5-5-5-5-5-7-7-7-7-7-7-7-7-7-7-7-7-7-7-7-7|


e|----------------------------------------------------------------|
B|----(x-x-x-x-x-x-x-x-x-x-x-x-x-x)---(x-x-x-x-x-x-x-x-x-x-x-x-x-x)
G|----(x-x-x-x-x-x-x-x-x-x-x-x-x-x)---(x-x-x-x-x-x-x-x-x-x-x-x-x-x)
D|-4--(x-x-x-x-x-x-x-x-x-x-x-x-x-x)4--(x-x-x-x-x-x-x-x-x-x-x-x-x-x)
A|-4~~~~~~~~~~~~~~~~~--------------4~~~~~~~~~~~~~~~~~-------------|
E|-2~~~~~~~~~~~~~~~~~--------------2~~~~~~~~~~~~~~~~~-------------|


e|----------------------------------------------------------------|
B|----(x-x-x-x-x-x-x-x-x-x-x-x-x-x)---(x-x-x-x-x-x-x-x-x-x-x-x-x-x)
G|----(x-x-x-x-x-x-x-x-x-x-x-x-x-x)---(x-x-x-x-x-x-x-x-x-x-x-x-x-x)
D|-7--(x-x-x-x-x-x-x-x-x-x-x-x-x-x)9--(x-x-x-x-x-x-x-x-x-x-x-x-x-x)
A|-7~~~~~~~~~~~~~~~~~--------------9~~~~~~~~~~~~~~~~~-------------|
E|-5~~~~~~~~~~~~~~~~~--------------7~~~~~~~~~~~~~~~~~-------------|


hit some harmonics, you can kill the power chords and strum the dead strings
for a harmonic effect. by the end you should be looking for a lot of feedback,
if your amp has spring reverb you can kick it to make the springs jump.
you gotta kick it while it's on :~)
            
Submit corrections



        Uv Ray  lessons Hard to play? Try these video lessons and learn fast Uv Ray  lessons
        
↑ Back to top | Tablatures and chords for acoustic guitar and electric guitar, ukulele, drums are parodies/interpretations of the original songs. You may use it for private study, scholarship, research or language learning purposes only