» » »

Jesus And Mary Chain - Taste Of Cindy Bass

Artists:  A B C D E F G H I J K L M N O P Q R S T U V W X Y Z # 

Taste Of Cindy Bass

(ver. 1) Click to play this song!
Jesus And Mary Chain
 Rating:
4/5 (4 votes)

 Taste Of Cindy lessons Tabs too difficult? Try these video lessons and learn fast
 
                Taste Of Cindy Tab by Jesus And Mary Chain            by Ross Jennings

Intro/Verse

G:-------------------|
D:-------------------|  X8
A:----------2-2-4-44-|
E:-2-222-22----------|

Chorus
G:------------------------------------|
D:------------------------------------|  X2
A:-22222222222222222------------------|
E:-------------------22222222222222222|

Oh Oh Oh...
G:------------------------------------|
D:------------------------------------|  X1
A:-22222222044444444------------------|
E:-------------------22222222222222222|

G:--------------------------------------|
D:--------------------------------------|  X1
A:-22222222044444444-----------2-2-4-44-|
E:-------------------222222222----------|

G:-------------------|        G:---------------------|
D:-------------------|  X2    D:---------------------| X1
A:----------2-2-4-44-|        A:---------------------|
E:-2-222-22----------|        E:-2-222-22-2-222-22-2-| 

Chorus
G:------------------------------------|
D:------------------------------------|  X2
A:-22222222222222222------------------|
E:-------------------22222222222222222|

Oh Oh Oh...
G:------------------------------------|
D:------------------------------------|  X1
A:-22222222044444444------------------|
E:-------------------22222222222222222|

G:--------------------------------------|
D:--------------------------------------|  X1
A:-22222222044444444--------------------|
E:-------------------2~~~~~~~~~~~~------|



               
            
Submit corrections


        Taste Of Cindy lessons Hard to play? Try these video lessons and learn fast Taste Of Cindy lessons
        
↑ Back to top | Tablatures and chords for acoustic guitar and electric guitar, ukulele, drums are parodies/interpretations of the original songs. You may use it for private study, scholarship, research or language learning purposes only