» » »

Jesus And Mary Chain - Hardest Walk Bass

Artists:  A B C D E F G H I J K L M N O P Q R S T U V W X Y Z # 

Hardest Walk Bass

(ver. 1) Click to play this song!
Jesus And Mary Chain
 Rating:
4/5 (4 votes)

 Hardest Walk lessons Tabs too difficult? Try these video lessons and learn fast
 
                The Jesus and Mary Chain
Psychocandy

Riff Uno
G----------------------------------------------------------|
D----------------6--6-6--6-6-6-8--8-8--8-8-8-6--6-6-8--8-8-|
A-6--6-6--6-6-6--------------------------------------------|
E----------------------------------------------------------|

Riff Dos (00:30)
G----------------------------------------------------------------------|
D-8--8-8--8-8-8-8~----------8~---------8/6--6-6-6--6-6-6--6-6-6--6-6/--|
A----------------------------------------------------------------------|
E----------------------------------------------------------------------|

G---------------------------|
D-8--8-8-8--8--8--8-8-8--8--|
A---------------------------|
E---------------------------|

Bridge (00:47)
G------------------------------------------------------------------|
D-------------6--6-6--6-6---------------6--6-6--6-6----------------|
A-6--6-6--6-6---------------6--6-6--6-6---------------6--6-6--6-6--|
E------------------------------------------------------------------|

G--------------------------------------|
D-6--6-6--6-6--8--8-8--8-8-8--8-8--8-8-|
A--------------------------------------|
E--------------------------------------|

Riff uno X4
Riff dos X1
Bridge X1
Riff uno X4
Riff dos X1
Riff uno X8
            
Submit corrections


        Hardest Walk lessons Hard to play? Try these video lessons and learn fast Hardest Walk lessons
        
↑ Back to top | Tablatures and chords for acoustic guitar and electric guitar, ukulele, drums are parodies/interpretations of the original songs. You may use it for private study, scholarship, research or language learning purposes only