» » »

Jesus And Mary Chain - Girlfriend Tabs

Artists:  A B C D E F G H I J K L M N O P Q R S T U V W X Y Z # 

Girlfriend Tabs

(ver. 1) Click to play this song!
Jesus And Mary Chain
 Rating:
4/5 (4 votes)

 Girlfriend  lessons Tabs too difficult? Try these video lessons and learn fast
 
                Tuning: standard

   1  2  3  4  1  2  3  4  1  2  3  4  1  2  3  4
e|---------------------------------------------------------------------------|
B|--2--2--2--3--2--0--2--0--0--0--2--3--2--0--2--2---------------------------|
G|----------------2-----------------------2----------------------------------|
D|-------------------2--2--2--2--2--2--2-----2--2----------------------------|
A|-0--0--0--0--0-------------------------------------------------------------|
E|---------------------------------------------------------------------------|

At "Got new ideas and got new taste...."
   1  2  3  4  1  2  3  4  1  2  3  4  
e|---------------------------------------------------------------------------|
B|---------------------------------------------------------------------------|
G|---------------------------------------------------------------------------|
D|/7----------------------\2-------------------------------------------------|
A|/7----------------------\2-------------------------------------------------|
E|/5----------------------\0-------------------------------------------------|
            
Submit corrections


        Girlfriend  lessons Hard to play? Try these video lessons and learn fast Girlfriend  lessons
        
↑ Back to top | Tablatures and chords for acoustic guitar and electric guitar, ukulele, drums are parodies/interpretations of the original songs. You may use it for private study, scholarship, research or language learning purposes only