Home » J » Jessie J »

Jessie J - Nobodys Perfect Tabs

Artists:  A B C D E F G H I J K L M N O P Q R S T U V W X Y Z # 

Nobodys Perfect Tabs

(ver. 1) Click to play this song!
Jessie J
[Intro]

  Em7                             Cadd9                           G
e|-------------------------------|-------------------------------|--------------------------------|
B|---------3-----3-----3---------|---------3-----3-----3---------|----------3-----3-----3---------|
G|-------0---0-----0-----0---0---|-------0---0-----0-----0---0---|------------0-----0-----0---0---|
D|-----2-------2-----2-----2-----|-----2-------2-----2-----2-----|-------0------0-----0-----0-----|
A|---2---------------------------|---3---------------------------|-----2--------------------------|
E|-------------------------------|-------------------------------|---3----------------------------|

  D/Dsus2
e|----------------------------------------|
B|---------3-----3------------------------|
G|-------2---2-----2------2/4\2---0-------|
D|-----0-------0----------------------4---|
A|---0------------------------------------|
E|----------------------------------------|



[Verse]

  Em7                             Cadd9                           G
e|-------------------------------|-------------------------------|--------------------------------|
B|---------3-----3-----3---------|---------3-----3-----3---------|----------3-----3-----3---------|
G|-------0---0-----0-----0---0---|-------0---0-----0-----0---0---|------------0-----0-----0---0---|
D|-----2-------2-----2-----2-----|-----2-------2-----2-----2-----|-------0------0-----0-----0-----|
A|---2---------------------------|---3---------------------------|-----2--------------------------|
E|-------------------------------|-------------------------------|---3----------------------------|

  D/Dsus2
e|-----------------------------------------|
B|---------3-----3-------------------------|
G|-------2---2-----2-------2/4\2---0-------|
D|-----0-------0-----0-----------------4---|
A|---0-------------------------------------|
E|-----------------------------------------|   (2x)


Strumming..


 |  Em7  |  Cadd9  |   G   |   D   |  Dsus2  |

e|---3---|----3----|---3---|---2---|---h3----|
B|---3---|----3----|---3---|---3---|----3----|
G|---0---|----0----|---0---|---2---|----2----|
D|---2---|----2----|---0---|---0---|----0----|
A|---2---|----3----|---2---|---x---|----x----|
E|---0---|----x----|---3---|---x---|----x----|





[Chorus]


 |  Em7  |  Cadd9  |   G   |   D   |  Dsus2  |

e|---3---|----3----|---3---|---2---|---h3----|
B|---3---|----3----|---3---|---3---|----3----|
G|---0---|----0----|---0---|---2---|----2----|
D|---2---|----2----|---0---|---0---|----0----|
A|---2---|----3----|---2---|---x---|----x----|
E|---0---|----x----|---3---|---x---|----x----|   (2x)



  Em7                             Cadd9                           G
e|-------------------------------|-------------------------------|--------------------------------|
B|---------3-----3-----3---------|---------3-----3-----3---------|----------3-----3-----3---------|
G|-------0---0-----0-----0---0---|-------0---0-----0-----0---0---|------------0-----0-----0---0---|
D|-----2-------2-----2-----2-----|-----2-------2-----2-----2-----|-------0------0-----0-----0-----|
A|---2---------------------------|---3---------------------------|-----2--------------------------|
E|-------------------------------|-------------------------------|---3----------------------------|

  D/Dsus2
e|-----------------------------------------|
B|---------3-----3-------------------------|
G|-------2---2-----2-------2/4\2---0-------|
D|-----0-------0-----0-----------------4---|
A|---0-------------------------------------|
E|-----------------------------------------|   (2x)




[Verse 2]


  Em7                             Cadd9                           G (strumming)
e|-------------------------------|-------------------------------|--------------------------------|
B|---------3-----3-----3---------|---------3-----3-----3---------|----------3-----3-----3---------|
G|-------0---0-----0-----0---0---|-------0---0-----0-----0---0---|------------0-----0-----0---0---|
D|-----2-------2-----2-----2-----|-----2-------2-----2-----2-----|-------0------0-----0-----0-----|
A|---2---------------------------|---3---------------------------|-----2--------------------------|
E|-------------------------------|-------------------------------|---3----------------------------|

  D/Dsus2 (strumming)
e|-----------------------------------------|
B|---------3-----3-------------------------|
G|-------2---2-----2-------2/4\2---0-------|
D|-----0-------0-----0-----------------4---|
A|---0-------------------------------------|
E|-----------------------------------------|   (2x)






[Chorus]


 |  Em7  |  Cadd9  |   G   |   D   |  Dsus2  |

e|---3---|----3----|---3---|---2---|---h3----|
B|---3---|----3----|---3---|---3---|----3----|
G|---0---|----0----|---0---|---2---|----2----|
D|---2---|----2----|---0---|---0---|----0----|
A|---2---|----3----|---2---|---x---|----x----|
E|---0---|----x----|---3---|---x---|----x----|   (4x)




[Bridge]


 |  Em7  |  Cadd9  |   G   |   D   |  Dsus2  |

e|---3---|----3----|---3---|---2---|---h3----|
B|---3---|----3----|---3---|---3---|----3----|
G|---0---|----0----|---0---|---2---|----2----|
D|---2---|----2----|---0---|---0---|----0----|
A|---2---|----3----|---2---|---x---|----x----|
E|---0---|----x----|---3---|---x---|----x----|   (2x)




[Chorus]


 |  Em7  |  Cadd9  |   G   |   D   |  Dsus2  |

e|---3---|----3----|---3---|---2---|---h3----|
B|---3---|----3----|---3---|---3---|----3----|
G|---0---|----0----|---0---|---2---|----2----|
D|---2---|----2----|---0---|---0---|----0----|
A|---2---|----3----|---2---|---x---|----x----|
E|---0---|----x----|---3---|---x---|----x----|   (2x)





[Outro]


  Em7                             Cadd9                           G
e|-------------------------------|-------------------------------|--------------------------------|
B|---------3-----3-----3---------|---------3-----3-----3---------|----------3-----3-----3---------|
G|-------0---0-----0-----0---0---|-------0---0-----0-----0---0---|------------0-----0-----0---0---|
D|-----2-------2-----2-----2-----|-----2-------2-----2-----2-----|-------0------0-----0-----0-----|
A|---2---------------------------|---3---------------------------|-----2--------------------------|
E|-------------------------------|-------------------------------|---3----------------------------|

  D/Dsus2
e|-----------------------------------------|
B|---------3-----3-------------------------|
G|-------2---2-----2-------2/4\2---0-------|
D|-----0-------0-----0-----------------4---|
A|---0-------------------------------------|
E|-----------------------------------------|   (2x)
            
Submit corrections

↑ Back to top | Tablatures and chords for acoustic guitar and electric guitar, ukulele, drums are parodies/interpretations of the original songs. You may use it for private study, scholarship, research or language learning purposes only