» » »

Jessie J - Do It Like A Dude Tabs

Artists:  A B C D E F G H I J K L M N O P Q R S T U V W X Y Z # 

Do It Like A Dude Tabs

(ver. 1) Click to play this song!
Jessie J
 Rating:
4/5 (7 votes)


 Do It Like A Dude lessons Tabs too difficult? Try these video lessons and learn fast
 
                Sweet song to jam to. This is the way how Ben plays it live. 99.9% accurate but 
feel free to let me know if it isn't. Give it a go! Enjoy! Rate and Comment if you like!

Tuning: Standard 

Intro

e |----------x--x--x---------4--4----6---4--------------------|
B |----------4--4--4---------4--4-----------------7-----------|
G |----------4--4--4------4--4--4---------(x2)----6-----------| 
D |------4---4--4--4---------x—-x-----------------5-----------|
A |----------x--x--x----4-------------------------6-----------|         
E |----4----------------------------------------------0--2--3-|

Verse 1

e |----------x--x------------4--4--4----------------|
B |----------4--4------------4--4--4----------------|
G |----------4--4---------4--4--4-------(x4)--------| 
D |------4---4--4------------x—-x-------------------|
A |----------x--x------4----------------------------|   
E |---4-------------------------------/12\4---------|

Stomp stomp I've arrived
Drop the beat, nasty face
Why ya lookin' at me?

Flyin' flyin' flyin' flyin' through the sky
In my spaceship
I'm an alien tonight

Pre-chorus

e |----------x--x------------4--4-----------------------|
B |----------4--4------------4--4-----------------7-----|
G |----------4--4---------4--4--4--------(x2)-----6-----| 
D |-----4----4--4------------x—-x-----------------5-----|
A |----------x--x-------4-------------------------6-----|       
E |----4------------------------------------------------|


Dirty dirty dirty dirty dirty dirty sucka
You think I can't get hurt like you, you motherf....

e |-------9--------|
B |-------9--------|
G |-------0--------| 
D |-------x--------|
A |-------9--------|    
E |----------------|

Chorus

e |----------x--x------------4--4----6--4---------------|
B |----------4--4------------4--4-----------------------|
G |----------4--4--------4---4--4-------(x4)------------| 
D |------4---4--4------------x—-x-----------------------|
A |----------x--x------4--------------------------------|       
E |----4-------------------------------------0--2--3----|

I can do it like a brother
Do it like a dude
Grab my crotch, wear my hat low like you

Do it like a brother
Do it like a dude
Grab my crotch, wear my hat low like you

e |---------x---------x-----------|
B |---------4---------2--2--------|
G |---------4---------4--4--------| (x4)
D |------4--4---------0-----------|
A |---------x---------4-----------|     
E |----4--------------0-----------|


We can do it like the man'dem, man'dem
We can do it like the man'dem, man'dem
Sugar sugar sugar
We can do it like the man'dem, man'dem
We can do it like the man'dem, man'dem
Sugar sugar sugar

e |----------------|
B |-------7---7----|
G |-------6---6----| 
D |-------5--------|
A |-------6--------|    
E |----------------|

Verse 2
Boom Boom, pull me a beer
No pretty drinks, I'm a guy out here
Rollin' rollin' rollin' rollin' money like a pimp
My B I T C H's on my d*ck like this

Pre-chorus

Chorus

e |----------------|
B |-------7---7----|
G |-------6---6----| 
D |-------5--------|
A |-------6--------|    
E |----------------|



Bridge (x2)

e |----4----4---6--4----4--4--6--4---------|
B |----7----4-----------4--4---------------|
G |----4----4-----------4--4---------------| 
D |----4----4-----------x—-x---------------|
A |----4----4-----------4--4---------------|    
E |----0-----------------------------------|

Boys, come say what you wanna
Boys, you need to lick my dollar
Boys, gettin' hot under the collar
Holla holla woah

Chorus 

Outro

e |----------x--x------------4--4------------|
B |----------4--4------------4--4------------|
G |----------4--4---------4--4--4------------| 
D |-------4--4--4------------x—-x------------|
A |----------x--x-------4--------------------|  
E |----4-------------------------------------|
            
Submit corrections



        Do It Like A Dude lessons Hard to play? Try these video lessons and learn fast Do It Like A Dude lessons
        
↑ Back to top | Tablatures and chords for acoustic guitar and electric guitar, ukulele, drums are parodies/interpretations of the original songs. You may use it for private study, scholarship, research or language learning purposes only