Home » J » Jessie J »

Jessie J - Burnin Up Tabs

Artists:  A B C D E F G H I J K L M N O P Q R S T U V W X Y Z # 

Burnin Up Tabs

(ver. 1) Click to play this song!
Jessie J
Tuning: standard

No capo

To me it sounds good on acoustic but if on electric add a little treble less bass slight delay.

                   Chords diagrams
           B          Em            D/F#      Bm           Bsus2
e|---------7~~~-------7~~~---------------------------------------------------|
B|---------7~~~-------8~~~----------7~~~------7~~~---------7~~~--------------|
G|---------8~~~-------9~~~----------7~~~------7~~~---------9~~~--------------| 
D|---------9~~~-------9~~~----------7~~~------9~~~---------7~~~--------------|
A|---------9~~~-------7~~~----------9~~~------9~~~---------9~~~--------------|
E|---------7~~--------x-----------------------7~~~---------7~~~--------------|

   Repeats through chorus (I'm burnin up, up come on put me out...) (The part where she screams like a 
Duck)
This part u gotta strum super fast. Strum patern d d dududududu

        Bm                Bm
e|-------------------------------------------------------------------------|
B|------7----7------------7-7-7-7-7-7--------------------------------------|
G|------7----7------------7-7-7-7-7-7--------------------------------------|
D|------9----9------------9-9-9-9-9-9--------------------------------------| x4 (I guess)
A|------9----9------------9-9-9-9-9-9--------------------------------------|
E|-------------------------------------------------------------------------|

                            Intro/prechorus/chorus (:P
  
e|-------------------7-----------------------------10------9-------------------------|
B|-7--------7--8~~~--8-----10---8---7h8p7---7--7-----10------10----10----------------|
G|-8-----9-----------9-------------------------7-------11------11-----9----7---9-----|
D|-9---9---------------------------------------7----------------------------------9--|
A|---------------------------------------------5-------------------------------------|
E|-----------------------------------------------------------------------------------|

Peace out ! 
P.s. I recommend watching the video. ;)
Peace out! Again
            
Submit corrections

↑ Back to top | Tablatures and chords for acoustic guitar and electric guitar, ukulele, drums are parodies/interpretations of the original songs. You may use it for private study, scholarship, research or language learning purposes only