Home » J » Jessica Lea Mayfield »

Jessica Lea Mayfield - Party Drugs Tabs

Artists:  A B C D E F G H I J K L M N O P Q R S T U V W X Y Z # 

Party Drugs Tabs

(ver. 1) Click to play this song!
Jessica Lea Mayfield
                 (TAB FOR INTRO, VERSES & OUTRO)
C#| |-----------------------------|
G#| |-----------------------------|
E | |--------------------0-----0--|
B | |------0-----0-----2-----2----|
F#| |----2-----0-----0-----3------|
C#| |--0-----3--------------------|

 [Verse 1]
C#| |-----------------------------|
G#| |-----------------------------|
E | |--------------------0-----0--|
B | |------0-----0-----2-----2----|
F#| |----2-----0-----0-----3------|
C#| |--0-----3--------------------|

Party drugs just make my head sing
You and me are a pack of dogs
I will fight, and I will conquer
I will be the most f**ked up


  (BREAK)
C#|-----------------------------------|
G#|-----0------------0----------------|
E |-----------0-----------0-----------|
B |---2-----2-----2-----2----2--------|
F#|-0-----3-----0-----3---------3--0--|
C#|-----------------------------------|


 [Verse 2]
C#| |-----------------------------|
G#| |-----------------------------|
E | |--------------------0-----0--|
B | |------0-----0-----2-----2----|
F#| |----2-----0-----0-----3------|
C#| |--0-----3--------------------|

Party drugs, I've got used to
Without them I'm bored and tired
You and me and all this nothing
It's sweet, you've seen if I'm still breathing


  (BREAK)
C#|-----------------------------------|
G#|-----0------------0----------------|
E |-----------0-----------0-----------|
B |---2-----2-----2-----2----2--------|
F#|-0-----3-----0-----3---------3--0--|
C#|-----------------------------------|

 [Verse 3]
C#| |-----------------------------|
G#| |-----------------------------|
E | |--------------------0-----0--|
B | |------0-----0-----2-----2----|
F#| |----2-----0-----0-----3------|
C#| |--0-----3--------------------|

Party drugs just make us argue
Don't know why they didn't use to
I won't die in this hotel room
I'll be here when you return


            
Submit corrections

↑ Back to top | Tablatures and chords for acoustic guitar and electric guitar, ukulele, drums are parodies/interpretations of the original songs. You may use it for private study, scholarship, research or language learning purposes only