Home » J » Jeremy Riddle »

Jeremy Riddle - Furious Tabs

Artists:  A B C D E F G H I J K L M N O P Q R S T U V W X Y Z # 

Furious Tabs

(ver. 1) Click to play this song!
Jeremy Riddle
 Rating:
2.5/5 (24 votes)
                Tuning: STANDARD (eBGDAE)
KEY OF C

INTRO:

e|---x-----------------------------------------------------------------------|
B|--10-------------------12b13br12--(on the 4th beat of the 2nd measure)-----|
G|--10-----------------------------------------------------------------------|
D|--10--(for 2 measures)-----------------------------------------------------|
A|---x-----------------------------------------------------------------------|
E|---x-----------------------------------------------------------------------|
                                                                               PLAY 2 TIMES
e|---x-----------------------------------------------------------------------|
B|--10-------------------12b13br12~~(on the 4th beat of the 2nd measure)-----|
G|---9-----------------------------------------------------------------------|
D|--10--(for 2 measures)-----------------------------------------------------|
A|---x-----------------------------------------------------------------------|
E|---x-----------------------------------------------------------------------|

VERSE 1:

e|---------------------------------------------------------------------------|
B|-------5-----------------5--------------------5--------------5-------------|
G|-----5-----------------5---5----------------5--------------5---5-----------|
D|---3-----------------3--------------------7-------------7------------------|
A|---------------------------------------------------------------------------|
E|---------------------------------------------------------------------------|
  ...only glimpsed His vast affection/heard whispers of His heart and passion

e|---x-----------------------------------------------------------------------|
B|---3-----------------------------------------------------------------------|
G|---4-----------------------------------------------------------------------|
D|---5--(for 2 measures)-----------------------------------------------------|
A|---x-----------------------------------------------------------------------|
E|---x-----------------------------------------------------------------------|
  ...pouring out

CHORUS 1:

e|---x----------------------x------------------------------------------------|
B|---6----------------------5------------------------------------------------|
G|---5----------------------5------------------------------------------------|
D|---3--(for 2 measures)----x--(for 2 measures)------------------------------|    PLAY 2 TIMES
A|---x----------------------3------------------------------------------------|
E|---x----------------------x------------------------------------------------|

VERSE 2:

e|---x-----------------------------x-----------------------------------------|
B|--10----------------------------10-----------------------------------------|
G|--10-----------------------------9-----------------------------------------|
D|--10----------------------------10--(for 2 measures)-----------------------|
A|---x-----------------------------x-----------------------------------------|
E|---x-----------------------------x-----------------------------------------|
  ...Father loves and sends His son

e|---x-----------------------------x-----------------------------------------|
B|--10----------------------------10-----------------------------------------|
G|--10-----------------------------9-----------------------------------------|
D|--10----------------------------10--(for 2 measures)-----------------------|
A|---x-----------------------------x-----------------------------------------|
E|---x-----------------------------x-----------------------------------------|
  ...Son lays down His life for all

e|---------------------------------------------------------------------------|
B|-------5------------5---------------5----------------5---------------------|
G|-----5------------5---5-----------5----------------5---5-------------------|
D|---3------------3---------------7----------------7-------------------------|
A|---------------------------------------------------------------------------|
E|---------------------------------------------------------------------------|
  ...lavishes His love upon us/He calls us now His sons and daughters

e|---x-----------------------------------------------------------------------|
B|---3-----------------------------------------------------------------------|
G|---4-----------------------------------------------------------------------|
D|---5--(for 2 measures)-----------------------------------------------------|
A|---x-----------------------------------------------------------------------|
E|---x-----------------------------------------------------------------------|
  ...reaching out

CHORUS 2:

e|---x----------------------x------------------------------------------------|
B|---6----------------------5------------------------------------------------|
G|---5----------------------5------------------------------------------------|
D|---3--(for 2 measures)----x--(for 2 measures)------------------------------|    PLAY 4 TIMES
A|---x----------------------3------------------------------------------------|
E|---x----------------------x------------------------------------------------|

SOLO:

e|---------------------------------------12-12-13-13-------------------------|
B|---13-13-13-13-13-13-13-13-------------------------12-12-12-12-12-12-12-12-|
G|---------------------------12-12-12-12-------------------------------------|
D|---------------------------------------------------------------------------|
A|---------------------------------------------------------------------------|
E|---------------------------------------------------------------------------|

e|---------------13-13-12-12-------------------------------------------------|
B|---------------------------------------------------12-12-12-12-12-12-12-12-|
G|---12-12-12-12-------------14-14-14-14-14-14-14-14-------------------------|
D|---------------------------------------------------------------------------|
A|---------------------------------------------------------------------------|
E|---------------------------------------------------------------------------|

e|---------------------------------------13-13-12-12-------------------------|
B|---13-13-13-13-13-13-13-13-------------------------12-12-12-12-12-12-12-12-|
G|---------------------------12-12-12-12-------------------------------------|
D|---------------------------------------------------------------------------|
A|---------------------------------------------------------------------------|
E|---------------------------------------------------------------------------|

e|---------------12-12-13-13-------------------------------------------------|
B|---------------------------------------------------12-12-12-12-12-12-12-12-|
G|---12-12-12-12-------------14-14-14-14-14-14-14-14-------------------------|
D|---------------------------------------------------------------------------|
A|---------------------------------------------------------------------------|
E|---------------------------------------------------------------------------|

e|--12~~~~~~~~---------------------------------------------------------------|
B|--13~~~~~~~~---------------------------------------------------------------|
G|---------------------------------------------------------------------------|
D|---------------------------------------------------------------------------|
A|---------------------------------------------------------------------------|
E|---------------------------------------------------------------------------|

CHORUS 3:
[soft chorus, just let the last note from the solo ring out]
e|---~~~~~~~~----------------------------------------------------------------|
B|---~~~~~~~~----------------------------------------------------------------|
G|---------------------------------------------------------------------------|
D|---------------------------------------------------------------------------|
A|---------------------------------------------------------------------------|
E|---------------------------------------------------------------------------|

CHORUS 4:
[build]
e|---x----------------------x------------------------------------------------|
B|---6----------------------5------------------------------------------------|
G|---5----------------------5------------------------------------------------|
D|---3--(hold 2 measures)---x--(hold 2 measures)-----------------------------|    PLAY 2 TIMES
A|---x----------------------3------------------------------------------------|
E|---x----------------------x------------------------------------------------|

e|---x----------------------x------------------------------------------------|
B|---6----------------------5------------------------------------------------|
G|---5----------------------5------------------------------------------------|
D|---3--(for 2 measures)----x--(for 2 measures)------------------------------|    PLAY 2 TIMES
A|---x----------------------3------------------------------------------------|
E|---x----------------------x------------------------------------------------|

INTERLUDE:

e|---x-----------------------------------------------------------------------|
B|--10-------------------12b13br12--(on the 4th beat of the 2nd measure)-----|
G|--10-----------------------------------------------------------------------|
D|--10--(for 2 measures)-----------------------------------------------------|
A|---x-----------------------------------------------------------------------|
E|---x-----------------------------------------------------------------------|
                                                                               PLAY 2 TIMES
e|---x-----------------------------------------------------------------------|
B|--10-------------------12b13br12~~(on the 4th beat of the 2nd measure)-----|
G|---9-----------------------------------------------------------------------|
D|--10--(for 2 measures)-----------------------------------------------------|
A|---x-----------------------------------------------------------------------|
E|---x-----------------------------------------------------------------------|

CHORUS 2:

e|---x----------------------x------------------------------------------------|
B|---6----------------------5------------------------------------------------|
G|---5----------------------5------------------------------------------------|
D|---3--(for 2 measures)----x--(for 2 measures)------------------------------|    PLAY 4 TIMES
A|---x----------------------3------------------------------------------------|
E|---x----------------------x------------------------------------------------|

OUTRO:

e|---x----------------------x------------------------------------------------|
B|---6----------------------5------------------------------------------------|
G|---5----------------------5------------------------------------------------|
D|---3--(hold 2 measures)---x--(hold 2 measures)-----------------------------|    PLAY 4 TIMES
A|---x----------------------3------------------------------------------------|
E|---x----------------------x------------------------------------------------|
     Waking...              waking...            
Submit corrections

↑ Back to top | Tablatures and chords for acoustic guitar and electric guitar, ukulele, drums are parodies/interpretations of the original songs. You may use it for private study, scholarship, research or language learning purposes only