Home » J » Jeffrey Lewis »

Jeffrey Lewis - Man With The Golden Arm Tabs

Artists:  A B C D E F G H I J K L M N O P Q R S T U V W X Y Z # 

Man With The Golden Arm Tabs

(ver. 1) Click to play this song!
Jeffrey Lewis

there's essentially two parts to this song.  figure out the arrangement on your own.  
it's just 1-2-1-2 but there is some deviation from this pattern at various points)

E------------------------------------------------------------------------|
B------------------------------------------------------------------------|
G------------------------------------------------------------------------|
D-9---9-9-9-9---11--11-11---14-14-13-------------------------------------|
A-9---9-9-9-9---11--11-11---14-14-13-------------------------------------|
E-7---7-7-7-7---9---9--9----12-12-11-------------------------------------|

E------------------------------------------------------------------------|
B------------------------------------------------------------------------|
G------------------------------------------------------------------------|
D-9-9-9-9-9--11-11-14----------------------------------------------------|
A-9-9-9-9-9--11-11-14----------------------------------------------------|
E-7-7-7-7-7--9--9--12----------------------------------------------------|
            
Submit corrections

↑ Back to top | Tablatures and chords for acoustic guitar and electric guitar, ukulele, drums are parodies/interpretations of the original songs. You may use it for private study, scholarship, research or language learning purposes only