Home » J » Jeff Beck »

Jeff Beck - Nadia Tabs

Artists:  A B C D E F G H I J K L M N O P Q R S T U V W X Y Z # 

Nadia Tabs

(ver. 1) Click to play this song!
Jeff Beck
[Intro]
With slide and delay
D#|---------------------------|----------------------------------------------------|
A#|-5-/-10-\-8-/-13-\-10-/-14~|--/-14-/-15-\-14-/-17-\-15-\-14-\-13-\-12-\-10-10---|
F#|---------------------------|----------------------------------------------------|
C#|---------------------------|----------------------------------------------------|
G#|---------------------------|----------------------------------------------------|
D#|---------------------------|----------------------------------------------------|

[Main Riffs]
With no slide, and less delay
Riff A
D#|----------------------|-------------------------------|x 2
A#|8-8-10-10wd-(8)-wu-10-|-12p10-12---10p8p7h8-7-7wd(5)--|
F#|----------------------|-------------------------------|
C#|----------------------|-------------------------------|
G#|----------------------|-------------------------------|
D#|----------------------|-------------------------------|

Riff B
D#|---------------------------|------------------------------------------------|x 2
A#|7-10b12r10p8p7-7\5-5\2-5-7-|7b8~-7b8r7wd(5)---------------------------------|
F#|---------------------------|------------------------------------------------|
C#|---------------------------|------------------------------------------------|
G#|---------------------------|------------------------------------------------|
D#|---------------------------|------------------------------------------------|

Riff A
D#|----------------------|-----------------------------------------------------|x 2
A#|8-8-10-10wd-(8)-wu-10-|12p10-12-10p8p7h8-7-7wd(5)---------------------------|
F#|----------------------|-----------------------------------------------------|
C#|----------------------|-----------------------------------------------------|
G#|----------------------|-----------------------------------------------------|
D#|----------------------|-----------------------------------------------------|

[Verse 1]
D#|-------------------|--------------------------------------------------------|x2
A#|7/10/14---14-14-15-|15--14-17-15-14-12-10-wd(9)wu(10)-----------------------|
F#|-------------------|--------------------------------------------------------|
C#|-------------------|--------------------------------------------------------|
G#|-------------------|--------------------------------------------------------|
D#|-------------------|--------------------------------------------------------|

[Chorus]
Basically riff B with a few changes.
D#|---------------------------|-----------------------------|----------------------------------|
A#|7-10b12r10p8p7-7\5-5\2-5-7-|7b8~-7b8r7wd(5)--7b8r7-5---5-|7b8~---7b8r7-5----5-8--7h8p7wd(5)-|
F#|---------------------------|-------------------------6---|----------------6-----------------|
C#|---------------------------|-----------------------------|----------------------------------|
G#|---------------------------|-----------------------------|----------------------------------|
D#|---------------------------|-----------------------------|----------------------------------|

D#|---------------------------------|
A#|---------------------------------|
F#|9/11-11-12p11p9\6~---------------|
C#|---------------------------------|
G#|---------------------------------|
D#|---------------------------------|

[Bridge 1]
D#|--------------------------------|-------------------------------------------|
A#|----------10/14-14--15wd(14)wu15|--15p14p12------------12-14b15r14b15~------|
F#|11\9--11------------------------|------------14-12-14-----------------------|
C#|--------------------------------|-------------------------------------------|
G#|--------------------------------|-------------------------------------------|
D#|--------------------------------|-------------------------------------------|

[Verse 2]
Basically the same as Verse 1, but on the second repeat, Jeff plays something I still can't work out, so I 
just improvise it. Sorry

D#|-------------------|--------------------------------------------------------|x2
A#|7/10/14---14-14-15-|15--14-17-15-14-12-10-wd(9)wu(10)-----------------------|
F#|-------------------|--------------------------------------------------------|
C#|-------------------|--------------------------------------------------------|
G#|-------------------|--------------------------------------------------------|
D#|-------------------|--------------------------------------------------------|

[Chorus]
Same as before, but with one change.
D#|--------------------------|-----------------------------|-----------------------------------|
A#|7-10b12r10p8p7-7\5-5\2-5-7|-7b8~-7b8r7wd(5)--7b8r7-5---5|/15-14-12-14-8wd(7)---5-7b8~r7wd(5)|
F#|--------------------------|-------------------------6---|-----------------------------------|
C#|--------------------------|-----------------------------|-----------------------------------|
G#|--------------------------|-----------------------------|-----------------------------------|
D#|--------------------------|-----------------------------|-----------------------------------|

D#|---------------------------------|
A#|---------------------------------|
F#|9/11-11-12p11p9\6~---------------|
C#|---------------------------------|
G#|---------------------------------|
D#|---------------------------------|

[Bridge 2]
D#|---------------------------------------------------------------------------|x4
A#|---------------------OR-----15~14b15~r-------------------------------------|
F#|7+-wd(6)wu(7)~wd(5)--------------------------------------------------------|
C#|---------------------------------------------------------------------------|
G#|---------------------------------------------------------------------------|
D#|---------------------------------------------------------------------------|

[Intro Riff]
With slide and delay
D#|-------------------|--------------------------------------------------------|
A#|5~/10\8/13\10/14~--|/14/15\14/17\15\14\13\12\10-10~-------------------------|
F#|-------------------|--------------------------------------------------------|
C#|-------------------|--------------------------------------------------------|
G#|-------------------|--------------------------------------------------------|
D#|-------------------|--------------------------------------------------------|

Riff B
D#|---------------------------|------------------------------------------------|x 2
A#|7-10b12r10p8p7-7\5-5\2-5-7-|7b8~-7b8r7wd(5)---------------------------------|
F#|---------------------------|------------------------------------------------|
C#|---------------------------|------------------------------------------------|
G#|---------------------------|------------------------------------------------|
D#|---------------------------|------------------------------------------------|

Riff A
D#|-----------------------|----------------------------------------------------|x 2
A#|8-8-10-10wd-(8)-wu-10--|12p10-12-10p8p7h8-7-7wd(5)--------------------------|
F#|-----------------------|----------------------------------------------------|
C#|-----------------------|----------------------------------------------------|
G#|-----------------------|----------------------------------------------------|
D#|-----------------------|----------------------------------------------------|

[Chorus]
Basically riff B with a few changes.
D#|---------------------------|-----------------------------|----------------------------------|
A#|7-10b12r10p8p7-7\5-5\2-5-7-|7b8~-7b8r7wd(5)--7b8r7-5---5-|7b8~---7b8r7-5----5-8--7h8p7wd(5)-|
F#|---------------------------|-------------------------6---|----------------6-----------------|
C#|---------------------------|-----------------------------|----------------------------------|
G#|---------------------------|-----------------------------|----------------------------------|
D#|---------------------------|-----------------------------|----------------------------------|

D#|---------------------------------|
A#|---------------------------------|
F#|9/11-11-12p11p9\6~---------------|
C#|---------------------------------|
G#|---------------------------------|
D#|---------------------------------|

[Outro]
D#|---------------------------------------------------------------------------|x4
A#|---------------------or-----15~14b15~r-------------------------------------|
F#|7+-wd(6)wu(7)~wd(5)--------------------------------------------------------|
C#|---------------------------------------------------------------------------|
G#|---------------------------------------------------------------------------|
D#|---------------------------------------------------------------------------|            
Submit corrections

↑ Back to top | Tablatures and chords for acoustic guitar and electric guitar, ukulele, drums are parodies/interpretations of the original songs. You may use it for private study, scholarship, research or language learning purposes only