Home » J » Jeff Beck »

Jeff Beck - Another Place Tabs

Artists:  A B C D E F G H I J K L M N O P Q R S T U V W X Y Z # 

Another Place Tabs

(ver. 1) Click to play this song!
Jeff Beck
Jeff Beck - Another Place (Who Else 1999)

Capo Needed On 7th Fret

Riff 1
E-----------------------------------------------0--2---------------------|
B------------0----------0----------------------------0--3-----2----------|
G---------2-------2--2-------2--2---------------------------2-----2--2---|
D---------2-----2---------2----------------------------------------------|
A---------0-----------------------5--4------------------------------0----|
E------------------------------------------------------------------------|

Riff 2
E------------------------------------------------0--2--------------------|
B------------0----------0-----------------------------0--3-----2---------|
G---------2-------2--2-------2--2---------------------------2-----2------|
D---------2-----2---------2----------------------------------------------|
A---------0-----------------------5--4-----------------------------------|
E------------------------------------------------------------------------|


Riff 3
E--------------------------------------------------------------------------|
B----3--2--3--5--3--2--0--0-----2------------------------------------------|
G----2-----------------------2-----2---------------------------------------|
D----------------------0-------------------5--4--5--7--5--4--2--2-----4----|
A----0-------h2----------------------------5--------------------5--5-----5-|
E--------------------------------------------------------------------------|

Riff 4
E--------------------------------------------------------------------------|
B----3--2--3--5--3--2--0--0-----2--------------0-----------0---------------|
G----2-----------------------2-----2--------2--------2--2--------2--2------|
D----------------------0--------------4-----2-----2-----------2------------|
A----0-------h2-----------------------------0-------------------------5----|b4
E--------------------------------------------------------------------------|

Riff 5
E-------0--2-------------------------|
B------------0--3-----2--------------|
G------------------2-----2--2--------|
D------------------------------------|
A------------------------------------|
E------------------------------------|

Order:
Riff 1
Riff 2
Riff 3
Riff 4
Riff 5
Riff 1
Riff 3
Riff 4
Riff 5

Not Sure On Tuning So Put It As Standard...
Enjoy!
            
Submit corrections

↑ Back to top | Tablatures and chords for acoustic guitar and electric guitar, ukulele, drums are parodies/interpretations of the original songs. You may use it for private study, scholarship, research or language learning purposes only