» » »

Jay-Z - Doa Death Of Auto Tune Bass

Artists:  A B C D E F G H I J K L M N O P Q R S T U V W X Y Z # 

Doa Death Of Auto Tune Bass

(ver. 1) Click to play this song!
Jay-Z
 Rating:
4/5 (4 votes)
                Intro pt 1
G----------|
D-20/8-----|
A----------|
E-----6----|

Intro pt 2
I think the bass was tuned down a half step, so this is the part an octave up

G---------------|
D-8--8----------|
A-------6-6-8---|
E---------------|

Main Riff

G--------------------------------------------------|
D---8-----------8-------8--------------------------|
A------8h10p8s6------------8h10p8s6--6--6h8--------|
E-6-------------------6----------------------------|
            
Submit corrections

↑ Back to top | Tablatures and chords for acoustic guitar and electric guitar, ukulele, drums are parodies/interpretations of the original songs. You may use it for private study, scholarship, research or language learning purposes only