» » »

Jawbreaker - The Boat Dreams From The Hill Tabs

Artists:  A B C D E F G H I J K L M N O P Q R S T U V W X Y Z # 

The Boat Dreams From The Hill Tabs

(ver. 1) Click to play this song!
Jawbreaker
 Rating:
4/5 (4 votes)


 The Boat Dreams From The Hill lessons Tabs too difficult? Try these video lessons and learn fast
 
                Tuning:  Standard

So I looked online and noticed no one had tabbed this out.  Anywhere.  Which is a shame, 
here I am.  Enjoy.


-Intro-
Guitar 1:
---------------------------------------------------------------------------|
---------------------------------------------------------------------------|
------------------44444444--------------------66666666---------------------|
----7------5555---44444444------7------5555---XXXXXXXX---------------------|X2
----7------5555---22222222------7------5555---44444444---------------------|
----5------3333-----------------5------3333--------------------------------|


Guitar 2 (2nd time through intro only):
---------------------------------------------------------------------------|
---------------------------------------------------------------------------|
-------------66666666666666666666666666666666------------------------------|
-------------XXXXXXXXXXXXXXXXXXXXXXXXXXXXXXXX------------------------------|
-------------44444444444444444444444444444444------------------------------|
---------------------------------------------------------------------------|


-Verse-
----------------------------------------------------------------|
----------------------------------------------------------------|
---------------------------4444---------------------------------|
--77777777------5555-------4444---------------------------------|
--77777777------5555-------2222---------------------------------|
--55555555------3333--------------------------------------------|
Boat on a hill, never going to sea

-----------------------------------------------------------|
-----------------------------------------------------------|
------------------------6666-------------------------------|
-77777777----5555-------XXXX-------------------------------|
-77777777----5555-------4444-------------------------------|
-55555555----3333------------------------------------------|
Anchored.....to a fixer upper's dream

-----------------------------------------------------------|
-----------------------------------------------------------|
-------------------------------4444------------------------|
--77777777---------5555--------4444------------------------|
--77777777---------5555--------2222------------------------|
--55555555---------3333------------------------------------|
This boat is beat, never gonna be a boat now
-----------------------------------------------------------|
-----------------------------------------------------------|
--------------------------6666-----------------------------|
-77777777----5555---------XXXX-----------------------------|
-77777777----5555---------4444-----------------------------|
-55555555----3333------------------------------------------|
Thirsty......sees the sea from high on ice plant


-Pre-Chorus-
------------------------------------------------|
------------------------------------------------|
------------------------------------------------|
--4444-----5555----------77777777---------------|
--4444-----5555----------77777777---------------|
--2222-----3333----------55555555---------------|
He keeps patching it and painting

------------------------------------------------|
------------------------------------------------|
---------------------------77777777-------------|
--2222----4444-------------77777777-------------|
--2222----4444-------------55555555-------------|
--0000----2222----------------------------------|
Thinking about his pension plan

------------------------------------------------|
------------------------------------------------|
------------------------------------------------|
-4444---5555----------77777777------------------|
-4444---5555----------77777777------------------|
-2222---3333----------55555555------------------|
But the boat is out to pasture

------------------------------------------------|
------------------------------------------------|
----------------------7777--7-------------------|
--2222----4444--------7777--7-(stop)------------|
--2222----4444--------5555--5-------------------|
--0000----2222----------------------------------|
Seems it never had a chance


-Chorus-
-------------------------------------------------------------------------|
-------------------------------------------------------------------------|
-------------------------------------------------------------------------|
------------77777777---------------22222222-----------------55555555-----|
------------77777777---------------22222222-----------------55555555-----|
------------55555555---------------00000000-----------------33333333-----|
I wanna be a boat, I wanna learn to swim, then I'll learn to float, and begin

---------------------|
---------------------|
-----77777777--------|
-----77777777--------|X2
-----55555555--------|
---------------------|
.....again

-Post-Chorus-
Guitar 1:
----------------------------------------       -----|
----------------------------------------       -----|
----------------4---------------------4-       -----|
---7-------5----4--------7-------5----4-       --7--| (for 2nd Verse)
---7-------5----2--------7-------5----2-       --7--|
---5-------3-------------5-------3------       --5--|

Guitar 2:
-----------------------------------------|
--------------------5--------------------|
---6~-6~-6~--4-7--6----7-6-4-2~----------|
-----------------------------------------|X2
-----------------------------------------|
-----------------------------------------|

For the next verse, just repeat what's up above, but the first two times, strum each 
just once.  Play the pre-chorus and chorus the same, but there's an outro to the song that 
like the post-chorus.  This is it, to be played after the 2nd chorus:


Outro:
----------------------------------------------------------------------|
----------------------------------------------------------------------|
---666--9--11-9~------666-7--9~------7-X-66--4--2~--------------------|
---XXX--X--X--X-------XXX-X--X-------X-X-XX--X--2~-----7777-7777------|
---444--7--9--7~------444-5--7~------5-X-44--2--0~-----7777-7777------|
-------------------------------------------------------5555-5555------|

Song Order:
Intro X2
Verse
Pre-Chorus
Chorus
Post-Chorus
Verse (first two times there's 1 strum for each note)
Pre-Chorus
Chorus
Outro


And that's it.  Pretty simple song musically, with some great lyrics.  Happy playing.
            
Submit corrections



        The Boat Dreams From The Hill lessons Hard to play? Try these video lessons and learn fast The Boat Dreams From The Hill lessons
        
↑ Back to top | Tablatures and chords for acoustic guitar and electric guitar, ukulele, drums are parodies/interpretations of the original songs. You may use it for private study, scholarship, research or language learning purposes only