Home » J » Jason Isbell »

Jason Isbell - Cover Me Up Tabs

Artists:  A B C D E F G H I J K L M N O P Q R S T U V W X Y Z # 

Cover Me Up Tabs

(ver. 1) Click to play this song!
Jason Isbell
[Intro]
                     (Strum muted)                 (Muted)           
  D                   Up Down Up                  Up Down Up          
e|-----------------|---------------------|--------------------|--------------|
B|--3--------------|----x--x--x----------|----------x--x--x---|--------------|
G|--2h4--2--0------|----x--x--x----------|----------x--x--x---|--------------|
D|--0----0--0--4---|----4--4--4---4--2---|---0--0---x--x--x---|---0--0--0----|
A|-------------0---|----0--0--0---0--0---|------0---x--x--x---|---0--4--0--0-|
E|-----------------|---------------------|--------------------|------------0-|
  
   (Muted)
           Down Up  Up Down   
e|--2--2--2--2--0----0---2-|----------------|
B|--3--3--3--3--3----3---3-|----------------|
G|--2--2--2--2--2----2---2-|----------------|
D|-----------0--0----0---0-|----------------|
A|-----------0--0----0-----|----------------|
E|-----------0--0----0-----|----------------|


[Verse 1]

   Heart on the run       keeps a hand on the gun       you can't trust anyone
e|-----------------|---------------------|--------------------|--------------|
B|--3--------------|----x--x--x----------|----------x--x--x---|--------------|
G|--2h4--2--0------|----x--x--x----------|----------x--x--x---|--------------|
D|--0----0--0--4---|----4--4--4---4--2---|---0--0---x--x--x---|---0--0--0----|
A|-------------0---|----0--0--0---0--0---|------0---x--x--x---|---0--4--0--0-|
E|-----------------|---------------------|--------------------|------------0-|
  
    
    (Muted)                         (Muted)
e|--2--2--2--0-------------|-------2--2--2--|
B|--3--3--3--3-------------|-------3--3--3--|
G|--2--2--2--2-------------|-------2--2--2--|
D|-----------0----0-----0--|----------------|
A|-----------0------0h2----|--0-------------|
E|-----------0-------------|--0-------------|

    I was so sure       what I needed was more      tried to shoot out the sun
e|-----------------|---------------------|--------------------|--------------|
B|--3--------------|----x--x--x----------|----------x--x--x---|--------------|
G|--2h4--2--0------|----x--x--x----------|----------x--x--x---|--------------|
D|--0----0--0--4---|----4--4--4---4--2---|---0--0---x--x--x---|---0--0--0----|
A|-------------0---|----0--0--0---0--0---|------0---x--x--x---|---0--4--0--0-|
E|-----------------|---------------------|--------------------|------------0-|
  
    
    (Muted)                          
e|--2--2--2--0--0--0--0--2-|----------------|
B|--3--3--3--3--3--3--3--3-|----------------|
G|--2--2--2--2--2--2--2--2-|----------------|
D|-----------0-------------|----------------|
A|-----------0-------------|----------------|
E|-----------0-------------|----------------|


                Bm                     G                     D
In days when we raged we flew off the page, such damage was done.

                                                               
But I made it through   cause somebody knew         I was meant for someone
e|-----------------|---------------------|--------------------|--------------|
B|--3--------------|----x--x--x----------|----------x--x--x---|--------------|
G|--2h4--2--0------|----x--x--x----------|----------x--x--x---|--------------|
D|--0----0--0--4---|----4--4--4---4--2---|---0--0---x--x--x---|---0--0--0----|
A|-------------0---|----0--0--0---0--0---|------0---x--x--x---|---0--4--0--0-|
E|-----------------|---------------------|--------------------|------------0-|
  
    
  (Muted)                          
e|--2--2--2--0--0--0--0--2-|----------------|
B|--3--3--3--3--3--3--3--3-|----------------|
G|--2--2--2--2--2--2--2--2-|----------------|
D|-----------0-------------|----------------|
A|-----------0-------------|----------------|
E|-----------0-------------|----------------|


[Chorus]

   D                            G                         D
So girl leave your boots by the bed we ain’t leaving this room
     D                     G                      D
til someone needs medical help or the magnolias bloom.
     Em                       G                       Bm
It’s cold in this house and I ain’t going out to chop wood.


    So cover me up      and know you're enough      to use me for good.
e|-----------------|---------------------|--------------------|--------------|
B|--3--------------|----x--x--x----------|----------x--x--x---|--------------|
G|--4----2--0------|----x--x--x----------|----------x--x--x---|--------------|
D|--0----0--0--4---|----4--4--4---4--2---|---0--0---x--x--x---|---0--0--0----|
A|-------------0---|----0--0--0---0--0---|------0---x--x--x---|---0--4--0--0-|
E|-----------------|---------------------|--------------------|------------0-|
  
    
    (Muted)                        
e|--2--2--2--0--0--0--0--2-|----------------|
B|--3--3--3--3--3--3--3--3-|----------------|
G|--2--2--2--2--2--2--2--2-|----------------|
D|--x--x--x--0-------------|----------------|
A|--x--x--x--0-------------|----------------|
E|-----------0-------------|----------------|


e|-----------------|---------------------|--------------------|--------------|
B|--3--------------|----x--x--x----------|----------x--x--x---|--------------|
G|--2h4--2--0------|----x--x--x----------|----------x--x--x---|--------------|
D|--0----0--0--4---|----4--4--4---4--2---|---0--0---x--x--x---|---0--0--0----|
A|-------------0---|----0--0--0---0--0---|------0---x--x--x---|---0--4--0--0-|
E|-----------------|---------------------|--------------------|------------0-|
  
    
    (Muted)                        
e|--2--2--2--0--0----------|----------------|
B|--3--3--3--3--3----------|----------------|
G|--2--2--2--2--2----------|----------------|
D|--x--x--x--0---------0---|----------------|
A|--x--x--x--0-----0h2-----|----------------|
E|-----------0-----------0-|----------------|


[Verse 2]

  Put your faith to the test when I tore off your dress        in Richmond on high
e|-----------------|---------------------|--------------------|--------------|
B|--3--------------|----x--x--x----------|----------x--x--x---|--------------|
G|--4----2--0------|----x--x--x----------|----------x--x--x---|--------------|
D|--0----0--0--4---|----4--4--4---4--2---|---0--0---x--x--x---|---0--0--0----|
A|-------------0---|----0--0--0---0--0---|------0---x--x--x---|---0--4--0--0-|
E|-----------------|---------------------|--------------------|------------0-|
  
    
    (Muted)                        
e|--2--2--2--0--0--0--0--2-|----------------|
B|--3--3--3--3--3--3--3--3-|----------------|
G|--2--2--2--2--2--2--2--2-|----------------|
D|--x--x--x--0-------------|----------------|
A|--x--x--x--0-------------|----------------|
E|-----------0-------------|----------------|

But I sobered up      and I swore off that stuff    forever this time 
e|-----------------|---------------------|--------------------|--------------|
B|--3--------------|----x--x--x----------|----------x--x--x---|--------------|
G|--4----2--0------|----x--x--x----------|----------x--x--x---|--------------|
D|--0----0--0--4---|----4--4--4---4--2---|---0--0---x--x--x---|---0--0--0----|
A|-------------0---|----0--0--0---0--0---|------0---x--x--x---|---0--4--0--0-|
E|-----------------|---------------------|--------------------|------------0-|
  
    
    (Muted)                        
e|--2--2--2--0--3--3--3--2-|----------------|
B|--3--3--3--3--3--3--3--3-|----------------|
G|--2--2--2--2--2--2--2--2-|----------------|
D|--x--x--x--0-------------|----------------|
A|--x--x--x--0-------------|----------------|
E|-----------0-------------|----------------|

D                    G
And the old lover's sing
                   D 
"I thought it'd be me who helped him get home"

But home was a dream,   one I'd never seen         till you came along
e|-----------------|---------------------|--------------------|--------------|
B|--3--------------|----x--x--x----------|----------x--x--x---|--------------|
G|--2h4--2--0------|----x--x--x----------|----------x--x--x---|--------------|
D|--0----0--0--4---|----4--4--4---4--2---|---0--0---x--x--x---|---0--0--0----|
A|-------------0---|----0--0--0---0--0---|------0---x--x--x---|---0--4--0--0-|
E|-----------------|---------------------|--------------------|------------0-|
  
    
    (Muted)                        
e|--2--2--2--0--0----------|----------------|
B|--3--3--3--3--3----------|----------------|
G|--2--2--2--2--2----------|----------------|
D|--x--x--x--0---------0---|----------------|
A|--x--x--x--0-----0h2-----|----------------|
E|-----------0-----------0-|----------------|


    D                G          
So girl, hang your dress up to dry
                      D      
We ain't leaving this room
     D             G          
Till Percy Priest breaks open wide
                   D  
And the river runs through
    Em                        G    
And carries this house on the stones
                 Bm     
Like a piece of driftwood


    So cover me up      and know you're enough      to use me for good.
e|-----------------|---------------------|--------------------|--------------|
B|--3--------------|----x--x--x----------|--------------------|--------------|
G|--4----2--0------|----x--x--x----------|--------------------|--------------|
D|--0----0--0--4---|----4--4--4---4--2---|---0--0-------------|---0--0--0----|
A|-------------0---|----0--0--0---0--0---|------0-------------|---0--4--0--0-|
E|-----------------|---------------------|--------------------|------------0-|
  
    
    (Muted)                        
e|--2--2--2--0--0--0--0--2-|----------------|
B|--3--3--3--3--3--3--3--3-|----------------|
G|--2--2--2--2--2--2--2--2-|----------------|
D|--x--x--x--0-------------|----------------|
A|--x--x--x--0-------------|----------------|
E|-----------0-------------|----------------|

e|-----------------|---------------------|--------------------|--------------|
B|--3--------------|----x--x--x----------|--------------------|--------------|
G|--4----2--0------|----x--x--x----------|--------------------|--------------|
D|--0----0--0--4---|----4--4--4---4--2---|---0--0-------------|---0--0--0----|
A|-------------0---|----0--0--0---0--0---|------0-------------|---0--4--0--0-|
E|-----------------|---------------------|--------------------|------------0-|
  
    
    (Muted)                        
e|--2--2--2--0--0--0--0--2-|----------------|
B|--3--3--3--3--3--3--3--3-|----------------|
G|--2--2--2--2--2--2--2--2-|----------------|
D|--x--x--x--0-------------|----------------|
A|--x--x--x--0-------------|----------------|
E|-----------0-------------|----------------|


e|-----------------|---------------------|--------------------|--------------|
B|--3--------------|----x--x--x----------|--------------------|--------------|
G|--4----2--0------|----x--x--x----------|--------------------|--------------|
D|--0----0--0--4---|----4--4--4---4--2---|---0--0-------------|---0--0--0----|
A|-------------0---|----0--0--0---0--0---|------0-------------|---0--4--0--0-|
E|-----------------|---------------------|--------------------|------------0-|
  
    
    (Muted)                        
e|--2--2--2--0--0--0--0--2-|----------------|
B|--3--3--3--3--3--3--3--3-|----------------|
G|--2--2--2--2--2--2--2--2-|----------------|
D|--x--x--x--0-------------|----------------|
A|--x--x--x--0-------------|----------------|
E|-----------0-------------|----------------|

   D                            G                         D
So girl leave your boots by the bed we ain’t leaving this room
     D                     G                      D
til someone needs medical help or the magnolias bloom.
     Em                       G                       Bm
It’s cold in this house and I ain’t going out to chop wood.

    So cover me up      and know you're enough      to use me for good.
e|-----------------|---------------------|--------------------|--------------|
B|--3--------------|----x--x--x----------|----------x--x--x---|--------------|
G|--4----2--0------|----x--x--x----------|----------x--x--x---|--------------|
D|--0----0--0--4---|----4--4--4---4--2---|---0--0---x--x--x---|---0--0--0----|
A|-------------0---|----0--0--0---0--0---|------0---x--x--x---|---0--4--0--0-|
E|-----------------|---------------------|--------------------|------------0-|
  
    
    (Muted)                        
e|--2--2--2--0--0--0--0--2-|----------------|
B|--3--3--3--3--3--3--3--3-|----------------|
G|--2--2--2--2--2--2--2--2-|----------------|
D|--x--x--x--0-------------|----------------|
A|--x--x--x--0-------------|----------------|
E|-----------0-------------|----------------|


    So cover me up      and know you're enough      to use me for good.
e|-----------------|---------------------|--------------------|--------------|
B|--3--------------|----x--x--x----------|----------x--x--x---|--------------|
G|--4----2--0------|----x--x--x----------|----------x--x--x---|--------------|
D|--0----0--0--4---|----4--4--4---4--2---|---0--0---x--x--x---|---0--0--0----|
A|-------------0---|----0--0--0---0--0---|------0---x--x--x---|---0--4--0--0-|
E|-----------------|---------------------|--------------------|------------0-|
  
    
    (Muted)                        
e|--2--2--2--0-------------|----------------|
B|--3--3--3--3-------------|----------------|
G|--2--2--2--2-------------|----------------|
D|--x--x--x--0-------0-----|----------------|
A|--x--x--x--0---0h2-------|----------------|
E|-----------0---------0---|----------------|


e|-----------------|---------------------|--------------------|--------------|
B|--3--------------|----x--x--x----------|----------x--x--x---|--------------|
G|--4----2--0------|----x--x--x----------|----------x--x--x---|--------------|
D|--0----0--0--4---|----4--4--4---4--2---|---0--0---x--x--x---|---0--0--0----|
A|-------------0---|----0--0--0---0--0---|------0---x--x--x---|---0--4--0--0-|
E|-----------------|---------------------|--------------------|------------0-|
  
    
e|-----------0-------------|----------------|
B|-----------3-------------|----------------|
G|-----------2-------------|----------------|
D|-----------0-------------|----------------|
A|-----------0-------------|----------------|
E|-----------0-------------|----------------|

            
Submit corrections

↑ Back to top | Tablatures and chords for acoustic guitar and electric guitar, ukulele, drums are parodies/interpretations of the original songs. You may use it for private study, scholarship, research or language learning purposes only