Home » J » Jars Of Clay »

Jars Of Clay - Flood Tabs

Artists:  A B C D E F G H I J K L M N O P Q R S T U V W X Y Z # 

Flood Tabs

(ver. 1) Click to play this song!
Jars Of Clay

Note: This is how I play it, so it may or may not 
be correct. All I know is that it sounds great 
when sung with.

INTRO

Capo on 3rd fret.

--3-3-3-3-3-3-3-3-3-3-
--3-3-3-3-3-3-3-3-3-3-
--5-5-3-3-3-3-3-3-3-3-  2x
--5-5-5-5-5-3-3-3-3-3-
--3-3-6-6-6-5-5-5-5-5-
--3-3-3-3-3-6-6-3-3-3-

Verse

Rain rain on my face....

---------------------- Play this over and over until the chorus.
----------------------
----------------------
--------------3-3-3---
--10--10--8---5-5-5---
--8---8---6---3-3-3---

Chorus

If I can't swim after forty days...

--3-3-3-3-3-3-3-3-3-3-
--3-3-3-3-3-3-3-3-3-3-
--5-5-3-3-3-3-3-3-3-3-  
--5-5-5-5-5-3-3-3-3-3-
--3-3-6-6-6-5-5-5-5-5-
--3-3-3-3-3-6-6-3-3-3-

These are just the chords, so play it with the song to get it right.

Geo


This TAB is incongruous with the disc version, so only use it for solo
performances.
After having gone to see "Jars of Clay" in concert, I am now aware that
this TAB is totally wrong. But it still works for a solo singing/playing
act.

Geo
            
Submit corrections

↑ Back to top | Tablatures and chords for acoustic guitar and electric guitar, ukulele, drums are parodies/interpretations of the original songs. You may use it for private study, scholarship, research or language learning purposes only