Home » J » Japandroids »

Japandroids - Fires Highway Tabs

Artists:  A B C D E F G H I J K L M N O P Q R S T U V W X Y Z # 

Fires Highway Tabs

(ver. 1) Click to play this song!
Japandroids
 Rating:
4/5 (4 votes)
                (Intro)
-------------------------------------------------------------------------------
                             FIRE'S HIGHWAY - Japandroids
-------------------------------------------------------------------------------

Tuning: Standard

e|-0---0-0---0-0--0-0---0--0-0----0---0--------------------------------------|
B|-3---2--2--3-2--2--2--3--2--2---2---2--------------------------------------|
G|-2---2-----2-2--2-----2--2------2---2--------------------------------------|
D|-0---2-----0-0--2-----0--2------0---2--------------------------------------|
A|-0---0-----0-0--0-----0--0------x---x--------------------------------------|
E|--------------------------------2---0--------------------------------------|


The strumming pattern isn't accurate, I'm just giving you basic chords in the intro. 
This riff is repeated several times throughout the song.



***********************************

| /   slide up
| \   slide down
| h   hammer-on
| p   pull-off
| ~   vibrato
| +   harmonic
| x   Mute note
| b   Bend
| pb  Pre-bend
| br  Bend release
| pbr Pre-bend release
| brb Bend release bend

************************************
            
Submit corrections

↑ Back to top | Tablatures and chords for acoustic guitar and electric guitar, ukulele, drums are parodies/interpretations of the original songs. You may use it for private study, scholarship, research or language learning purposes only