Home » J » Janis Joplin »

Janis Joplin - Half Moon Tabs

Artists:  A B C D E F G H I J K L M N O P Q R S T U V W X Y Z # 

Half Moon Tabs

(ver. 1) Click to play this song!
Janis Joplin
[Verse]
                              C
e|----------------------------8----|------------------------------------------|
B|----------------------------8----|--10-h11--11-11p-10---10-10p-8----8-------|
G|----------------------------9----|--10-h12--12-12p-10---10-10p-8----8-------|
D|-------------------10-------10---|-------------------------------10---------|
A|----------------------------10---|------------------------------------------|
E|------------------------8---8----|------------------------------------------|


  (--------bass line--------) C
e|----------------------------8----|------------------------------------------|
B|----------------------------8----|--10-h11--11-11p-10---10-10p-8----8-------|
G|----------------------------9----|--10-h12--12-12p-10---10-10p-8----8-------|
D|-----------------8--9-10----10---|-------------------------------10---------|
A|----7-8-9-10----------------10---|------------------------------------------|
E|-------------------------8--8----|------------------------------------------|

                              C
e|----------------------------8----------------------------------------------|
B|----------------------------8----------------------------------------------|
G|--------------10p-8--7------9----------------------------------------------|
D|-----------------------10---10---------------------------------------------|
A|--------8-h10---------------10---------------------------------------------|
E|--------------------------8-8----------------------------------------------|


[Chorus]
       G         C         G         C
e|-----3--3-----3-3--------10-10-----3-3------|
B|-----3--3-----5-5--------12-12-----5-5------|
G|-----4--4-----5-5--------12-12-----5-5------|
D|-----5--5-----5-5--------12-12-----5-5------| x2
A|-----5--5-----3-3--------10-10-----3-3------|
E|-----3--3-----3-3--------10-10-----3-3------|

       G         A         B         C
e|-----3--3------5-5-------7-7-------8--8-----|
B|-----3--3------5-5-------7-7-------8--8-----|
G|-----4--4------6-6-------8-8-------9--9-----|
D|-----5--5------7-7-------9-9-------10-10----|
A|-----5--5------7-7-------9-9-------10-10----|
E|-----3--3------5-5-------7-7-------8--8-----|

       F         F6*       F7        Fm7
e|-----8---------8---------8---------8--------|
B|-----10--------11--------10--------9--------|
G|-----10--------8---------8---------8--------|
D|-----10--------10--------10--------10-------|
A|-----8---------8---------8---------8--------|
E|-----8---------8---------8---------8--------|

            
Submit corrections

↑ Back to top | Tablatures and chords for acoustic guitar and electric guitar, ukulele, drums are parodies/interpretations of the original songs. You may use it for private study, scholarship, research or language learning purposes only