Home » J » Jamey Johnson »

Jamey Johnson - Rebelicious Tabs

Artists:  A B C D E F G H I J K L M N O P Q R S T U V W X Y Z # 

Rebelicious Tabs

(ver. 1) Click to play this song!
Jamey Johnson
Written by Johnson/Hatch/Niemann
04/06/06



     I've Ever Seen...					           Uh...	
		     E |--------------------------------------------------|
		     B |--------------------------------------------------|
		     G |----0h2-0-0---0--0------0-2-0---5/4/2-0-2---------|
		     D |-0h3-----3---3--3-0--0h3-----3---------3-3--------|
		     A |--------------------------------------------------|
		     E |--------------------------------------------------|

	(This part has extremely quick slides and moves)	She's an outlaw livin'
E |-----------------------------------------------------------------|
B |-------------------9/10--10--8/10---10p8p6-10-6--10br10br10br10br|
G |-------0-2/5-7-7br-----------------------------------------------|
D |-0-3br-----------------------------------------------------------|
A |-----------------------------------------------------------------|
E |-----------------------------------------------------------------|
            
Submit corrections

↑ Back to top | Tablatures and chords for acoustic guitar and electric guitar, ukulele, drums are parodies/interpretations of the original songs. You may use it for private study, scholarship, research or language learning purposes only