Home » J » James Taylor »

James Taylor - Fire And Rain Bass

Artists:  A B C D E F G H I J K L M N O P Q R S T U V W X Y Z # 

Fire And Rain Bass

(ver. 1) Click to play this song!
James Taylor
 Rating:
2.6/5 (30 votes)
                  Intro:
G|----------------|----------------|----------------|----------------|
D|----------------|----------------|----------------|----------------|
A|3-------3-------|3-------3-------|3-------3-------|1-------1-------|
E|----------------|----------------|----------------|----------------|


G|----------------|----------------|----------------|----------------|
D|--------0-------|----------------|--------0-------|----------------|
A|----------------|3---------------|----------------|1-------1-----1-|
E|3---------------|--------3-------|3---------------|----------------|

G|----------------|----------------|----------------|----------------|
D|--------0-------|----------------|--------0-------|----------------|
A|----------------|3---------------|----------------|1-------1-----1-|
E|3---------------|--------3-------|3---------------|----------------|

G|------------0---|----------------|------------0---|----------------|
D|3---2---0-------|----------------|3---2---0-------|----------------|
A|----------------|3-------3-------|----------------|3-------3-------|
E|----------------|----------------|----------------|----------------|

G|------------0---|----------------|----------------|----------------|
D|3---2---0-------|----------------|------------0---|----------------|
A|----------------|3-------3-------|3---2---0-------|----------------|
E|----------------|----------------|----------------|3-------3-------|

G|----------------|
D|----------------|
A|3---2---0---0---|
E|----------------|

  Outro:
G|----------------|
D|----------------|
A|3-------3-----3-|
E|----------------|            
Submit corrections

↑ Back to top | Tablatures and chords for acoustic guitar and electric guitar, ukulele, drums are parodies/interpretations of the original songs. You may use it for private study, scholarship, research or language learning purposes only