Home » J » James Gang »

James Gang - Garden Gate Tabs

Artists:  A B C D E F G H I J K L M N O P Q R S T U V W X Y Z # 

Garden Gate Tabs

(ver. 1) Click to play this song!
James Gang
[Chords]
    C    F    G   Gsus4  Bb9  A/F   G5
D|--2----3----0-----0-----x----x----x----|
A|--3----3----2-----3-----3----3----X----|
F|--2----4----2-----2-----0----0----2----|
C|--0----5----2-----2-----2----0----2----|
G|--x----x----0-----0-----3----2----0----|
C|--x----5----x-----x-----x----x----x----|

[Intro]
D|--------------2--------------------------0h2----------------------------|
A|--------------3--------------------------3-------3----3-------7+--------|
F|--------------2--------------------------2-----------0----2---7+--------|
C|------------0--------------------------0--------2---0----0----7+--------|
G|-------------------------3/5------------------3----2----0---------------|
C|--3b--3--0-------3b--3--0-----3b--3--0------------------------------12/0|

[Riff 1]        (Fast strums while muting)
D|---------------------------|
A|-----3---------------------|
F|-----4------------PM--PM---|
C|----5---------PM--PM--PM---|
G|--------3/5---PM--PM--PM---|
C|--5------------------------|

[Riff 2]
D|-------------------------|
A|------3----3-------7+----|
F|----------0----2---7+----|
C|-----2---0----0----7+----|
G|---3----2----0-----------|
C|-------------------------|

[Verse]
C                        
Well I’m sitting in the middle of a story 
          F               C
Would you like to read my line 
C
Sipping on a morning glory 
          F                Gsus4 G
Would you like to taste my wine 
F               C
Don’t forget to tell the sun 

[Riff 1]        (Fast strums while muting)
D|---------------------------|
A|-----3---------------------|
F|-----4------------PM--PM---|
C|----5---------PM--PM--PM---|
G|--------3/5---PM--PM--PM---|
C|--5------------------------|
I sleep through the day 
F                C
See him when the morning comes 

[Riff 2]
D|-------------------------|
A|------3----3-------7+----|
F|----------0----2---7+----|
C|-----2---0----0----7+----|
G|---3----2----0-----------|
C|-------------------------|
Everything’s OK

C
The captain’s in the chartroom 
    F           C
Navigating on a star 
C             
Can’t know where we’re going 
          F                   Gsus4 G
'Cause he don’t know where we are 
F               C
Don’t you think I don’t know 

[Riff 1]        (Fast strums while muting)
D|---------------------------|
A|-----3---------------------|
F|-----4------------PM--PM---|
C|----5---------PM--PM--PM---|
G|--------3/5---PM--PM--PM---|
C|--5------------------------|
How to tell the time 
F             C
Can’t you see you can’t sell me 

[Riff 2]
D|-------------------------|
A|------3----3-------7+----|
F|----------0----2---7+----|
C|-----2---0----0----7+----|
G|---3----2----0-----------|
C|-------------------------|
Something that is mine 

[Solo]
D|---0--2----------2---0--2----------2-----------------12/14-----------|
A|---3--3-------2--3---3--3-------2--3----3----3-------13/15-----------|
F|---2--2--2---2---2---2--2--2---2---2--------0----2---12/14-----------|
C|--0---------2----0--0---------2----0---2---0----2----0---------------|
G|-----------0-----------------0--------3---2----0---------------------|
C|---------------------------------------------------------------------|

C
You just sit to talking 
        F                    C
And I’m sure there’s nothing said 
C         
Your book is lying open 
      F                   Gsus4 G
And I don’t think much is read 
F                  C
The dog is outside barking 
F                     C
At something he can’t see 
F                  C       
The garden gate is closing

[Riff 2]
D|-------------------------|
A|------3----3-------7+----|
F|----------0----2---7+----|
C|-----2---0----0----7+----|
G|---3----2----0-----------|
C|-------------------------|            
Submit corrections

↑ Back to top | Tablatures and chords for acoustic guitar and electric guitar, ukulele, drums are parodies/interpretations of the original songs. You may use it for private study, scholarship, research or language learning purposes only