» » »

James Brown - Talkin Loud And Sayin Nothing Tabs

Artists:  A B C D E F G H I J K L M N O P Q R S T U V W X Y Z # 

Talkin Loud And Sayin Nothing Tabs

(ver. 1) Click to play this song!
James Brown
 Rating:
3.4/5 (5 votes)

 Talkin Loud And Sayin Nothing  lessons Tabs too difficult? Try these video lessons and learn fast
 
                   1st - 4th Verses
    Q=102(s16=16)
    Eb9
   4/4
    Gtr I (El. Gtr.)
    E   S S E   E   H
||------6s5s6-----------------------|
||o-----6s5s6-----------------------|
||------6s5s6-----------------------|
||----------------------------------|
||o---------------------------------|
||----------------------------------|
|
|   Gtr II (El. Gtr.)
|   S S S S S S S S S S S S S S S S
||--x-x-x-x-6-6-x-x-x-x-------------|
||o-x-x-x-x-6-6-x-x-x-x-------------|
||--x-x-x-x-6-6-x-x-x-x-------------|
||----------------------------3-5-6-|
||o---------------------3-4---------|
||----------------------------------|


  E   S S E   E   H                 E   S S E   E   H
|-----6s5s6-----------------------|-----6s5s6------------------------|
|-----6s5s6-----------------------|-----6s5s6------------------------|
|-----6s5s6-----------------------|-----6s5s6------------------------|
|---------------------------------|----------------------------------|
|---------------------------------|----------------------------------|
|---------------------------------|----------------------------------|
|
| S S S S S S S S S S S S S S S S   S S S S S S S S S S S S S S S S
|-x-x-x-x-6-6-x-x-----------------|-x-x-x-x-6-6-x-x-x-x--------------|
|-x-x-x-x-6-6-x-x-----------------|-x-x-x-x-6-6-x-x-x-x--------------|
|-x-x-x-x-6-6-x-x-----------------|-x-x-x-x-6-6-x-x-x-x--------------|
|---------------------------3-5-6-|---------------------------3-5-6--|
|---------------------3-4---------|---------------------3-4----------|
|-------------------6-------------|----------------------------------|


  E   S S E   E   H                 E   S S E   E   H
|-----6s5s6-----------------------|-----6s5s6-----------------------|
|-----6s5s6-----------------------|-----6s5s6-----------------------|
|-----6s5s6-----------------------|-----6s5s6-----------------------|
|---------------------------------|---------------------------------|
|---------------------------------|---------------------------------|
|---------------------------------|---------------------------------|
|
| S S S S S S S S S S S S S S S S   S S S S S S S S S S S S S S S S
|-x-x-x-x-6-6-x-x-----------------|-x-x-x-x-6-6-x-x-x-x-------------|
|-x-x-x-x-6-6-x-x-----------------|-x-x-x-x-6-6-x-x-x-x-------------|
|-x-x-x-x-6-6-x-x-----------------|-x-x-x-x-6-6-x-x-x-x-------------|
|---------------------------3-5-6-|---------------------------3-5-6-|
|---------------------3-4---------|---------------------3-4---------|
|-------------------6-------------|---------------------------------|


  E   S S E   E   H
|-----6s5s6--------------------------|
|-----6s5s6--------------------------|
|-----6s5s6--------------------------|
|------------------------------------|
|------------------------------------|
|------------------------------------|
|
| S S S S S S S S S S S S S S S S
|-x-x-x-x-6-6-x-x--------------------|
|-x-x-x-x-6-6-x-x--------------------|
|-x-x-x-x-6-6-x-x--------------------|
|---------------------------3-5-6----|
|---------------------3-4------------|
|-------------------6----------------|


  E   S S E   E   H                 E   S S E   E   H                 8x
|-----6s5s6-----------------------|-----6s5s6-------------------------||
|-----6s5s6-----------------------|-----6s5s6------------------------o||
|-----6s5s6-----------------------|-----6s5s6-------------------------||
|---------------------------------|-----------------------------------||
|---------------------------------|----------------------------------o||
|---------------------------------|-----------------------------------||
|
| S S S S S S S S S S S S S S S S   S S S S S S S S S S S S S S S S   8x
|-x-x-x-x-6-6-x-x-x-x-------------|-x-x-x-x-6-6-x-x-------------------||
|-x-x-x-x-6-6-x-x-x-x-------------|-x-x-x-x-6-6-x-x------------------o||
|-x-x-x-x-6-6-x-x-x-x-------------|-x-x-x-x-6-6-x-x-------------------||
|---------------------------3-5-6-|---------------------------3-5-6---||
|---------------------3-4---------|---------------------3-4----------o||
|---------------------------------|-------------------6---------------||


   Bridge
    Eb7
    S S S S +Q    +E    E   Q         S S S S +H            Q
||----------------------------------|-----------------------------|
||o-9-----7-(7)---(7)---------------|-9-----7-(7)-----------------|
||----8-----------------------------|---8-------------------------|
||----------------------------------|-----------------------------|
||o---------------------------------|-----------------------------|
||----------------------------------|-----------------------------|
|
|   Q        E. S  S  S S S S S S S   S S S S  S  S  E  e E S S E
||----------------------------------|-----------------------------|
||o-------------7---------9-------7-|-------9-----9s11-11-9---7s9-|
||--------------------8-------8-----|---8-------------------------|
||--------------4---------6-------4-|-------6-----6s=8--8-6---4s6-|
||o-------------------6-------6-----|---6-------------------------|
||----------------------------------|-----------------------------|


  S S  S S +Q    +E  E   Q         S S S S +E  E H           4x
|--------------------------------|---------------------------||
|-9------7-(7)---(7)-------------|-9-----7-(7)--------------o||
|---8----------------------------|---8-----------------------||
|--------------------------------|---------------------------||
|--------------------------------|--------------------------o||
|--------------------------------|---------------------------||
|
| S E.     +E  e  E.   S S S S S   S S S S  E  e S  E S E E  4x
|--------------------------------|------------------------9--||
|-7---------------7--------9-----|---7-----------9s11-------o||
|---8------(8)-8-------8-------8-|-------8-----8----------6--||
|-4---------------4--------6-----|---4-----------6s=8--------||
|---6------(6)-6-------6-------6-|-------6-----6------------o||
|--------------------------------|---------------------------||


   5th - 7th Verses
    Eb9
    E   S S E   E   H
||------6s5s6-----------------------|
||o-----6s5s6-----------------------|
||------6s5s6-----------------------|
||----------------------------------|
||o---------------------------------|
||----------------------------------|
|
|   S S S S S S S S S S S S S S S S
||--x-x-x-x-6-6-x-x-x-x-------------|
||o-x-x-x-x-6-6-x-x-x-x-------------|
||--x-x-x-x-6-6-x-x-x-x-------------|
||----------------------------3-5-6-|
||o---------------------3-4---------|
||----------------------------------|


  E   S S E   E   H                 E   S S E   E   H
|-----6s5s6-----------------------|-----6s5s6-------------------------|
|-----6s5s6-----------------------|-----6s5s6-------------------------|
|-----6s5s6-----------------------|-----6s5s6-------------------------|
|---------------------------------|-----------------------------------|
|---------------------------------|-----------------------------------|
|---------------------------------|-----------------------------------|
|
| S S S S S S S S S S S S S S S S   S S S S S S S S S S S S S S S S
|-x-x-x-x-6-6-x-x-----------------|-x-x-x-x-6-6-x-x-x-x---------------|
|-x-x-x-x-6-6-x-x-----------------|-x-x-x-x-6-6-x-x-x-x---------------|
|-x-x-x-x-6-6-x-x-----------------|-x-x-x-x-6-6-x-x-x-x---------------|
|---------------------------3-5-6-|---------------------------3-5-6---|
|---------------------3-4---------|---------------------3-4-----------|
|-------------------6-------------|-----------------------------------|


  E   S S E   E   H                 E   S S E   E   H
|-----6s5s6-----------------------|-----6s5s6-----------------------|
|-----6s5s6-----------------------|-----6s5s6-----------------------|
|-----6s5s6-----------------------|-----6s5s6-----------------------|
|---------------------------------|---------------------------------|
|---------------------------------|---------------------------------|
|---------------------------------|---------------------------------|
|
| S S S S S S S S S S S S S S S S   S S S S S S S S S S S S S S S S
|-x-x-x-x-6-6-x-x-x-x-------------|-x-x-x-x-6-6-x-x-----------------|
|-x-x-x-x-6-6-x-x-x-x-------------|-x-x-x-x-6-6-x-x-----------------|
|-x-x-x-x-6-6-x-x-x-x-------------|-x-x-x-x-6-6-x-x-----------------|
|---------------------------3-5-6-|---------------------------3-5-6-|
|---------------------3-4---------|---------------------3-4---------|
|---------------------------------|-------------------6-------------|


  E   S S E   E   H
|-----6s5s6--------------------------|
|-----6s5s6--------------------------|
|-----6s5s6--------------------------|
|------------------------------------|
|------------------------------------|
|------------------------------------|
|
| S S S S S S S S S S S S S S S S
|-x-x-x-x-6-6-x-x-x-x----------------|
|-x-x-x-x-6-6-x-x-x-x----------------|
|-x-x-x-x-6-6-x-x-x-x----------------|
|---------------------------3-5-6----|
|---------------------3-4------------|
|------------------------------------|


  E   S S E   E   H                 E   S S E   E   H                 6x
|-----6s5s6-----------------------|-----6s5s6-------------------------||
|-----6s5s6-----------------------|-----6s5s6------------------------o||
|-----6s5s6-----------------------|-----6s5s6-------------------------||
|---------------------------------|-----------------------------------||
|---------------------------------|----------------------------------o||
|---------------------------------|-----------------------------------||
|
| S S S S S S S S S S S S S S S S   S S S S S S S S S S S S S S S S   6x
|-x-x-x-x-6-6-x-x-x-x-------------|-x-x-x-x-6-6-x-x-------------------||
|-x-x-x-x-6-6-x-x-x-x-------------|-x-x-x-x-6-6-x-x------------------o||
|-x-x-x-x-6-6-x-x-x-x-------------|-x-x-x-x-6-6-x-x-------------------||
|---------------------------3-5-6-|---------------------------3-5-6---||
|---------------------3-4---------|---------------------3-4----------o||
|---------------------------------|-------------------6---------------||


 Breakdown
  Wx10
|---------||
|---------||
|---------||
|---------||
|---------||
|---------||


   Outro
    E   S S E   E   H                 E   S S E   E   H
||------6s5s6-----------------------|-----6s5s6-----------------------|
||o-----6s5s6-----------------------|-----6s5s6-----------------------|
||------6s5s6-----------------------|-----6s5s6-----------------------|
||----------------------------------|---------------------------------|
||o---------------------------------|---------------------------------|
||----------------------------------|---------------------------------|
|
|   Gtr II
|   S S S S S S S S S S S S S S S S   S S S S S S S S S S S S S S S S
||--x-x-x-x-6-6-x-x-x-x-------------|-x-x-x-x-6-6-x-x-----------------|
||o-x-x-x-x-6-6-x-x-x-x-------------|-x-x-x-x-6-6-x-x-----------------|
||--x-x-x-x-6-6-x-x-x-x-------------|-x-x-x-x-6-6-x-x-----------------|
||----------------------------3-5-6-|---------------------------3-5-6-|
||o---------------------3-4---------|---------------------3-4---------|
||----------------------------------|-------------------6-------------|


  E   S S E   E   H                 E   S S E   E   H
|-----6s5s6-----------------------|-----6s5s6------------------------|
|-----6s5s6-----------------------|-----6s5s6------------------------|
|-----6s5s6-----------------------|-----6s5s6------------------------|
|---------------------------------|----------------------------------|
|---------------------------------|----------------------------------|
|---------------------------------|----------------------------------|
|
| S S S S S S S S S S S S S S S S   S S S S S S S S S S S S S S S S
|-x-x-x-x-6-6-x-x-x-x-------------|-x-x-x-x-6-6-x-x------------------|
|-x-x-x-x-6-6-x-x-x-x-------------|-x-x-x-x-6-6-x-x------------------|
|-x-x-x-x-6-6-x-x-x-x-------------|-x-x-x-x-6-6-x-x------------------|
|---------------------------3-5-6-|---------------------------3-5-6--|
|---------------------3-4---------|---------------------3-4----------|
|---------------------------------|-------------------6--------------|


  E   S S E   E   H                 E   S S E   E   H
|-----6s5s6-----------------------|-----6s5s6------------------------|
|-----6s5s6-----------------------|-----6s5s6------------------------|
|-----6s5s6-----------------------|-----6s5s6------------------------|
|---------------------------------|----------------------------------|
|---------------------------------|----------------------------------|
|---------------------------------|----------------------------------|
|
| S S S S S S S S S S S S S S S S   S S S S S S S S S S S S S S S S
|-x-x-x-x-6-6-x-x-x-x-------------|-x-x-x-x-6-6-x-x------------------|
|-x-x-x-x-6-6-x-x-x-x-------------|-x-x-x-x-6-6-x-x------------------|
|-x-x-x-x-6-6-x-x-x-x-------------|-x-x-x-x-6-6-x-x------------------|
|---------------------------3-5-6-|---------------------------3-5-6--|
|---------------------3-4---------|---------------------3-4----------|
|---------------------------------|-------------------6--------------|


  E   S S E   E   H                 E   S S E   E   H                14x
|-----6s5s6-----------------------|-----6s5s6-------------------------||
|-----6s5s6-----------------------|-----6s5s6------------------------o||
|-----6s5s6-----------------------|-----6s5s6-------------------------||
|---------------------------------|-----------------------------------||
|---------------------------------|----------------------------------o||
|---------------------------------|-----------------------------------||
|
| S S S S S S S S S S S S S S S S   S S S S S S S S S S S S S S S S  14x
|-x-x-x-x-6-6-x-x-x-x-------------|-x-x-x-x-6-6-x-x-------------------||
|-x-x-x-x-6-6-x-x-x-x-------------|-x-x-x-x-6-6-x-x------------------o||
|-x-x-x-x-6-6-x-x-x-x-------------|-x-x-x-x-6-6-x-x-------------------||
|---------------------------3-5-6-|---------------------------3-5-6---||
|---------------------3-4---------|---------------------3-4----------o||
|---------------------------------|-------------------6---------------||            
Submit corrections


        Talkin Loud And Sayin Nothing  lessons Hard to play? Try these video lessons and learn fast Talkin Loud And Sayin Nothing  lessons
        
↑ Back to top | Tablatures and chords for acoustic guitar and electric guitar, ukulele, drums are parodies/interpretations of the original songs. You may use it for private study, scholarship, research or language learning purposes only