» » »

James Brown - Mother Popcorn Tabs

Artists:  A B C D E F G H I J K L M N O P Q R S T U V W X Y Z # 

Mother Popcorn Tabs

(ver. 1) Click to play this song!
James Brown
 Rating:
4/5 (4 votes)

 Mother Popcorn  lessons Tabs too difficult? Try these video lessons and learn fast
 
                                 Verse
  Q=117
  N.C.            D7
 4/4
  Gtr I (El. Gtr.)
            PM----------------------------------------------------|
  H    Q  E E     E   E E   E E   E E   E   E   E E   E E   E E   E
|-------------||--------------------------|--------------------------|
|-------------||o-------------------------|--------------------------|
|-------------||--------------------------|--------------------------|
|-------------||--------------------------|--------------------------|
|-------------||o-5-----------3-----------|-5-----5-----3---5--------|
|-----------5-||------5-----5-----5-----5-|-----5-----5-----------5--|
|
| Gtr II (El. Gtr.)
| W               S S E S S E S S E S S E   S S E S S E S S E S S E
|-------------||--------------------------|--------------------------|
|-------------||o-x-x-x-x-x-x-x-x-x-x-x-x-|-x-x-x-x-x-x-x-x-x-x-x-x--|
|-------------||--x-x-x-x-x-x-x-x-x-x-x-x-|-x-x-x-x-x-x-x-x-x-x-x-x--|
|-------------||--x-x-x-x-x-x-x-x-x-x-x-x-|-x-x-x-x-x-x-x-x-x-x-x-x--|
|-------------||o-x-x-x-x-x-x-x-x-x-x-x-x-|-x-x-x-x-x-x-x-x-x-x-x-x--|
|-------------||--------------------------|--------------------------|


  PM------------------------------------------------|
  E   E E   E E   E E   E   E   E E   E S S S S S S S S  4x
|-------------------------|------------------------------||
|-------------------------|-----------------------------o||
|-------------------------|------------------------------||
|-------------------------|-------------------5----------||
|-5-----------3-----------|-5-----5-----3-5-------5-3---o||
|-----5-----5-----5-----5-|-----5-----5------------------||
|
| S S E S S E S S E S S E   S S E S S E S S E   S S E    4x
|-------------------------|------------------------------||
|-x-x-x-x-x-x-x-x-x-x-x-x-|-x-x-x-x-x-x-x-x-x---x-x-x---o||
|-x-x-x-x-x-x-x-x-x-x-x-x-|-x-x-x-x-x-x-x-x-x---x-x-x----||
|-x-x-x-x-x-x-x-x-x-x-x-x-|-x-x-x-x-x-x-x-x-x---x-x-x----||
|-x-x-x-x-x-x-x-x-x-x-x-x-|-x-x-x-x-x-x-x-x-x---x-x-x---o||
|-------------------------|------------------------------||


                                                       Bridge
                                                        Bb6       EbF6 Eb6
  PM----------------------------------------------|
  E   E E   E E   E E   E   E   E E   E E   E E   E     Q  Q  Q   S  S E
|-------------------------|-------------------------||--3--3------8s10s8--|
|-------------------------|-------------------------||o-3--3------8s10s8--|
|-------------------------|-------------------------||--3--3------8s10s8--|
|-------------------------|-------------------------||--------------------|
|-5-----------3-----------|-5-----5-----3---5-------||o-------------------|
|-----5-----5-----5-----5-|-----5-----5-----------5-||--------------------|
|
| S S E S S E S S E S S E   S S E S S E S S E S S E     Q  Q  E e E    E
|-------------------------|-------------------------||--------------------|
|-x-x-x-x-x-x-x-x-x-x-x-x-|-x-x-x-x-x-x-x-x-x-x-x-x-||o-3--3--------------|
|-x-x-x-x-x-x-x-x-x-x-x-x-|-x-x-x-x-x-x-x-x-x-x-x-x-||--3--3--------------|
|-x-x-x-x-x-x-x-x-x-x-x-x-|-x-x-x-x-x-x-x-x-x-x-x-x-||--2--2----3------1--|
|-x-x-x-x-x-x-x-x-x-x-x-x-|-x-x-x-x-x-x-x-x-x-x-x-x-||o-3--3--3-----------|
|-------------------------|-------------------------||--------------------|


               1.
                Bb6       EbF6 Eb6
  +H     H      Q  Q  Q   S  S E   +H     H
|-(8)---------|-3--3------8s10s8-|-(8)-----------||
|-(8)---------|-3--3------8s10s8-|-(8)----------o||
|-(8)---------|-3--3------8s10s8-|-(8)-----------||
|-------------|------------------|---------------||
|-------------|------------------|--------------o||
|-------------|------------------|---------------||
|
| +H     H      Q  Q  E e E    E   +H.       Q
|-------------|------------------|---------------||
|-------------|-3--3-------------|--------------o||
|-------------|-3--3-------------|---------------||
|-(1)---------|-2--2----3------1-|-(1)-----------||
|-------------|-3--3--3----------|--------------o||
|-------------|------------------|---------------||


  2.
  Bb6       EbF6 Eb6
  Q  Q  Q   S  S E   +H     Q  E E
|-3--3------8s10s8-|-(8)-----------|
|-3--3------8s10s8-|-(8)-----------|
|-3--3------8s10s8-|-(8)-----------|
|------------------|---------------|
|------------------|---------------|
|------------------|-------------5-|
|
| Q  Q  E e E    E   +H.       Q
|------------------|---------------|
|-3--3-------------|---------------|
|-3--3-------------|---------------|
|-2--2----3------1-|-(1)-----------|
|-3--3--3----------|---------------|
|------------------|---------------|


   Verse
    D7
    PM----------------------------------------------|
    E   E E   E E   E E   E   E   E E   E E   E E   E
||--------------------------|---------------------------|
||o-------------------------|---------------------------|
||--------------------------|---------------------------|
||--------------------------|---------------------------|
||o-5-----------3-----------|-5-----5-----3---5---------|
||------5-----5-----5-----5-|-----5-----5-----------5---|
|
|   S S E S S E S S E S S E   S S E S S E S S E S S E
||--------------------------|---------------------------|
||o-x-x-x-x-x-x-x-x-x-x-x-x-|-x-x-x-x-x-x-x-x-x-x-x-x---|
||--x-x-x-x-x-x-x-x-x-x-x-x-|-x-x-x-x-x-x-x-x-x-x-x-x---|
||--x-x-x-x-x-x-x-x-x-x-x-x-|-x-x-x-x-x-x-x-x-x-x-x-x---|
||o-x-x-x-x-x-x-x-x-x-x-x-x-|-x-x-x-x-x-x-x-x-x-x-x-x---|
||--------------------------|---------------------------|


  PM------------------------------------------------|
  E   E E   E E   E E   E   E   E E   E S S S S S S S S  4x
|-------------------------|------------------------------||
|-------------------------|-----------------------------o||
|-------------------------|------------------------------||
|-------------------------|-------------------5----------||
|-5-----------3-----------|-5-----5-----3-5-------5-3---o||
|-----5-----5-----5-----5-|-----5-----5------------------||
|
| S S E S S E S S E S S E   S S E S S E S S E   S S E    4x
|-------------------------|------------------------------||
|-x-x-x-x-x-x-x-x-x-x-x-x-|-x-x-x-x-x-x-x-x-x---x-x-x---o||
|-x-x-x-x-x-x-x-x-x-x-x-x-|-x-x-x-x-x-x-x-x-x---x-x-x----||
|-x-x-x-x-x-x-x-x-x-x-x-x-|-x-x-x-x-x-x-x-x-x---x-x-x----||
|-x-x-x-x-x-x-x-x-x-x-x-x-|-x-x-x-x-x-x-x-x-x---x-x-x---o||
|-------------------------|------------------------------||


   Saxophone Solo
    D7
    PM-----------------------
    E   E E   E E   E E   E
||--------------------------|
||o-------------------------|
||--------------------------|
||--------------------------|
||o-5-----------3-----------|
||------5-----5-----5-----5-|
|
|   S S E S S E S S E S S E
||--------------------------|
||o-x-x-x-x-x-x-x-x-x-x-x-x-|
||--x-x-x-x-x-x-x-x-x-x-x-x-|
||--x-x-x-x-x-x-x-x-x-x-x-x-|
||o-x-x-x-x-x-x-x-x-x-x-x-x-|
||--------------------------|


 -------------------------------------------------|
  E   E E   E E   E E   E   E   E E   E E   E E   E
|-------------------------|---------------------------|
|-------------------------|---------------------------|
|-------------------------|---------------------------|
|-------------------------|---------------------------|
|-5-----5-----3---5-------|-5-----------3-------------|
|-----5-----5-----------5-|-----5-----5-----5-----5---|
|
| S S E S S E S S E S S E   S S E S S E S S E S S E
|-------------------------|---------------------------|
|-x-x-x-x-x-x-x-x-x-x-x-x-|-x-x-x-x-x-x-x-x-x-x-x-x---|
|-x-x-x-x-x-x-x-x-x-x-x-x-|-x-x-x-x-x-x-x-x-x-x-x-x---|
|-x-x-x-x-x-x-x-x-x-x-x-x-|-x-x-x-x-x-x-x-x-x-x-x-x---|
|-x-x-x-x-x-x-x-x-x-x-x-x-|-x-x-x-x-x-x-x-x-x-x-x-x---|
|-------------------------|---------------------------|


  PM----------------------|
  E   E E   E S S S S S S S S  4x
|------------------------------||-|
|-----------------------------o||-|
|------------------------------||-|
|-------------------5----------||-|
|-5-----5-----3-5-------5-3---o||-|
|-----5-----5------------------||-|
|
| S S E S S E S S E   S S E    4x
|------------------------------||-|
|-x-x-x-x-x-x-x-x-x---x-x-x---o||-|
|-x-x-x-x-x-x-x-x-x---x-x-x----||-|
|-x-x-x-x-x-x-x-x-x---x-x-x----||-|
|-x-x-x-x-x-x-x-x-x---x-x-x---o||-|
|------------------------------||-|


   Verse
    D7
    PM----------------------------------------------|
    E   E E   E E   E E   E   E   E E   E E   E E   E
||--------------------------|-------------------------|
||o-------------------------|-------------------------|
||--------------------------|-------------------------|
||--------------------------|-------------------------|
||o-5-----------3-----------|-5-----5-----3---5-------|
||------5-----5-----5-----5-|-----5-----5-----------5-|
|
|   S S E S S E S S E S S E   S S E S S E S S E S S E
||--------------------------|-------------------------|
||o-x-x-x-x-x-x-x-x-x-x-x-x-|-x-x-x-x-x-x-x-x-x-x-x-x-|
||--x-x-x-x-x-x-x-x-x-x-x-x-|-x-x-x-x-x-x-x-x-x-x-x-x-|
||--x-x-x-x-x-x-x-x-x-x-x-x-|-x-x-x-x-x-x-x-x-x-x-x-x-|
||o-x-x-x-x-x-x-x-x-x-x-x-x-|-x-x-x-x-x-x-x-x-x-x-x-x-|
||--------------------------|-------------------------|


  PM------------------------------------------------|
  E   E E   E E   E E   E   E   E E   E S S S S S S S S  4x
|-------------------------|------------------------------||
|-------------------------|-----------------------------o||
|-------------------------|------------------------------||
|-------------------------|-------------------5----------||
|-5-----------3-----------|-5-----5-----3-5-------5-3---o||
|-----5-----5-----5-----5-|-----5-----5------------------||
|
| S S E S S E S S E S S E   S S E S S E S S E   S S E    4x
|-------------------------|------------------------------||
|-x-x-x-x-x-x-x-x-x-x-x-x-|-x-x-x-x-x-x-x-x-x---x-x-x---o||
|-x-x-x-x-x-x-x-x-x-x-x-x-|-x-x-x-x-x-x-x-x-x---x-x-x----||
|-x-x-x-x-x-x-x-x-x-x-x-x-|-x-x-x-x-x-x-x-x-x---x-x-x----||
|-x-x-x-x-x-x-x-x-x-x-x-x-|-x-x-x-x-x-x-x-x-x---x-x-x---o||
|-------------------------|------------------------------||


  PM----------------------------------------------|
  E   E E   E E   E E   E   E   E E   E E   E E   E
|-------------------------|--------------------------||
|-------------------------|--------------------------||
|-------------------------|--------------------------||
|-------------------------|--------------------------||
|-5-----------3-----------|-5-----5-----3---5--------||
|-----5-----5-----5-----5-|-----5-----5-----------5--||
|
| S S E S S E S S E S S E   S S E S S E S S E S S E
|-------------------------|--------------------------||
|-x-x-x-x-x-x-x-x-x-x-x-x-|-x-x-x-x-x-x-x-x-x-x-x-x--||
|-x-x-x-x-x-x-x-x-x-x-x-x-|-x-x-x-x-x-x-x-x-x-x-x-x--||
|-x-x-x-x-x-x-x-x-x-x-x-x-|-x-x-x-x-x-x-x-x-x-x-x-x--||
|-x-x-x-x-x-x-x-x-x-x-x-x-|-x-x-x-x-x-x-x-x-x-x-x-x--||
|-------------------------|--------------------------||


   Bridge
                                    1.
    Bb6       EbF6 Eb6               Bb6       EbF6 Eb6
    Q  Q  Q   S  S E   +H     H      Q  Q  Q   S  S E   +H     H
||--3--3------8s10s8-|-(8)---------|-3--3------8s10s8-|-(8)-----------||
||o-3--3------8s10s8-|-(8)---------|-3--3------8s10s8-|-(8)----------o||
||--3--3------8s10s8-|-(8)---------|-3--3------8s10s8-|-(8)-----------||
||-------------------|-------------|------------------|---------------||
||o------------------|-------------|------------------|--------------o||
||-------------------|-------------|------------------|---------------||
|
|   Q  Q  E e E    E   +H     H      Q  Q  E e E    E   +H.       Q
||-------------------|-------------|------------------|---------------||
||o-3--3-------------|-------------|-3--3-------------|--------------o||
||--3--3-------------|-------------|-3--3-------------|---------------||
||--2--2----3------1-|-(1)---------|-2--2----3------1-|-(1)-----------||
||o-3--3--3----------|-------------|-3--3--3----------|--------------o||
||-------------------|-------------|------------------|---------------||


                                      Outro
  2.
  Bb6       EbF6 Eb6                   D7
                                       PM--------------------|
  Q  Q  Q   S  S E   +H     Q  E E     E   E E   E E   E E   E
|-3--3------8s10s8-|-(8)-----------||--------------------------|
|-3--3------8s10s8-|-(8)-----------||o-------------------------|
|-3--3------8s10s8-|-(8)-----------||--------------------------|
|------------------|---------------||--------------------------|
|------------------|---------------||o-5-----------3-----------|
|------------------|-------------5-||------5-----5-----5-----5-|
|
| Q  Q  E e E    E   +H.       Q       S S E S S E S S E S S E
|------------------|---------------||--------------------------|
|-3--3-------------|---------------||o-x-x-x-x-x-x-x-x-x-x-x-x-|
|-3--3-------------|---------------||--x-x-x-x-x-x-x-x-x-x-x-x-|
|-2--2----3------1-|-(1)-----------||--x-x-x-x-x-x-x-x-x-x-x-x-|
|-3--3--3----------|---------------||o-x-x-x-x-x-x-x-x-x-x-x-x-|
|------------------|---------------||--------------------------|


  PM-------------------------------------------------
  E   E E   E E   E E   E   E   E E   E E   E E   E
|-------------------------|-------------------------|
|-------------------------|-------------------------|
|-------------------------|-------------------------|
|-------------------------|-------------------------|
|-5-----5-----3---5-------|-5-----------3-----------|
|-----5-----5-----------5-|-----5-----5-----5-----5-|
|
| S S E S S E S S E S S E   S S E S S E S S E S S E
|-------------------------|-------------------------|
|-x-x-x-x-x-x-x-x-x-x-x-x-|-x-x-x-x-x-x-x-x-x-x-x-x-|
|-x-x-x-x-x-x-x-x-x-x-x-x-|-x-x-x-x-x-x-x-x-x-x-x-x-|
|-x-x-x-x-x-x-x-x-x-x-x-x-|-x-x-x-x-x-x-x-x-x-x-x-x-|
|-x-x-x-x-x-x-x-x-x-x-x-x-|-x-x-x-x-x-x-x-x-x-x-x-x-|
|-------------------------|-------------------------|


 -------------------------|
  E   E E   E S S S S S S S S   5x
|-------------------------------||
|------------------------------o||
|-------------------------------||
|-------------------5-----------||
|-5-----5-----3-5-------5-3----o||
|-----5-----5-------------------||
|
| S S E S S E S S E   S S E     5x
|-------------------------------||
|-x-x-x-x-x-x-x-x-x---x-x-x----o||
|-x-x-x-x-x-x-x-x-x---x-x-x-----||
|-x-x-x-x-x-x-x-x-x---x-x-x-----||
|-x-x-x-x-x-x-x-x-x---x-x-x----o||
|-------------------------------||            
Submit corrections


        Mother Popcorn  lessons Hard to play? Try these video lessons and learn fast Mother Popcorn  lessons
        
↑ Back to top | Tablatures and chords for acoustic guitar and electric guitar, ukulele, drums are parodies/interpretations of the original songs. You may use it for private study, scholarship, research or language learning purposes only