» » »

James Blunt - Champions Acoustic Tabs

Artists:  A B C D E F G H I J K L M N O P Q R S T U V W X Y Z # 

Champions Acoustic Tabs

(ver. 1) Click to play this song!
James Blunt
 Rating:
4.3/5 (9 votes)

 Champions Acoustic lessons Tabs too difficult? Try these video lessons and learn fast
 
                [Intro]

e|-----------------------------------|-----------------------------------|
B|---9---9---9---9---9---9---10---10-|---5---5---5---5---5---5---14---14-|
G|-----------------------------------|-----------------------------------|
D|-----------------------------------|-----------------------------------|
A|-7---7---7---7---7---7---9---9-----|-4---4---4---4---4---4---12---12---|
E|-----------------------------------|-----------------------------------|


[Verse 1]

e|-----------------------------------|-----------------------------------|
B|---9---9---9---9---9---9---10---10-|---5---5---5---5---5---5---14---14-|
G|-----------------------------------|-----------------------------------|
D|-----------------------------------|-----------------------------------|
A|-7---7---7---7---7---7---9---9-----|-4---4---4---4---4---4---12---12---|
E|-----------------------------------|-----------------------------------| x4


[Pre-Chorus]

e|-----------------------------------|-----------------------------------|
B|---2---2---2---2---2---2---2---2---|---4---4---4---4---4---4---4---4---|
G|-----------------------------------|-----------------------------------|
D|-----------------------------------|-----------------------------------|
A|-0---0---0---0---0---0---0---0-----|-2---2---2---2---2---2---2---2-----|
E|-----------------------------------|-----------------------------------|

e|-----------------------------------|-----------------------------------|
B|---5---5---5---5---5---5---5---5---|---4---4---4---4---4~~-------------|
G|-----------------------------------|-----------------------------------|
D|-----------------------------------|-----------------------------------|
A|-4---4---4---4---4---4---4---4-----|-2---2---2---2---2-----------------|
E|-----------------------------------|-----------------------------------|


[Chorus]

e|-----------------------------------|-----------------------------------|
B|---9---9---9---9---9---9---10---10-|---5---5---5---5---5---5---14---14-|
G|-----------------------------------|-----------------------------------|
D|-----------------------------------|-----------------------------------|
A|-7---7---7---7---7---7---9---9-----|-4---4---4---4---4---4---12---12---|
E|-----------------------------------|-----------------------------------| x4


[Verse 2]

e|-----------------------------------|-----------------------------------|
B|---9---9---9---9---9---9---10---10-|---5---5---5---5---5---5---14---14-|
G|-----------------------------------|-----------------------------------|
D|-----------------------------------|-----------------------------------|
A|-7---7---7---7---7---7---9---9-----|-4---4---4---4---4---4---12---12---|
E|-----------------------------------|-----------------------------------| x4


[Pre-Chorus]

e|-----------------------------------|-----------------------------------|
B|---2---2---2---2---2---2---2---2---|---4---4---4---4---4---4---4---4---|
G|-----------------------------------|-----------------------------------|
D|-----------------------------------|-----------------------------------|
A|-0---0---0---0---0---0---0---0-----|-2---2---2---2---2---2---2---2-----|
E|-----------------------------------|-----------------------------------|

e|-----------------------------------|-----------------------------------|
B|---5---5---5---5---5---5---5---5---|---4---4---4---4---4~~-------------|
G|-----------------------------------|-----------------------------------|
D|-----------------------------------|-----------------------------------|
A|-4---4---4---4---4---4---4---4-----|-2---2---2---2---2-----------------|
E|-----------------------------------|-----------------------------------|

[Chorus]

e|-----------------------------------|-----------------------------------|
B|---9---9---9---9---9---9---10---10-|---5---5---5---5---5---5---14---14-|
G|-----------------------------------|-----------------------------------|
D|-----------------------------------|-----------------------------------|
A|-7---7---7---7---7---7---9---9-----|-4---4---4---4---4---4---12---12---|
E|-----------------------------------|-----------------------------------| x4


[Bridge]

e|-----------------------------------|-----------------------------------|
B|---2---2---2---2---2---2---9---9---|---4---4---4---4---4---4---9---9---|
G|-----------------------------------|-----------------------------------|
D|-----------------------------------|-----------------------------------|
A|-0---0---0---0---0---0---7---7-----|-2---2---2---2---2---2---7---7-----|
E|-----------------------------------|-----------------------------------|

e|-----------------------------------|-----------------------------------|
B|---2---2---2---2---2---2---9---9---|---4---4---4---4---4~~-------------|
G|-----------------------------------|-----------------------------------|
D|-----------------------------------|-----------------------------------|
A|-0---0---0---0---0---0---7---7-----|-2---2---2---2---2-----------------|
E|-----------------------------------|-----------------------------------|


[Chorus]

e|-----------------------------------|-----------------------------------|
B|---9---9---9---9---9---9---10---10-|---5---5---5---5---5---5---14---14-|
G|-----------------------------------|-----------------------------------|
D|-----------------------------------|-----------------------------------|
A|-7---7---7---7---7---7---9---9-----|-4---4---4---4---4---4---12---12---|
E|-----------------------------------|-----------------------------------| x4


[Outro]

e|-----------------------------------|
B|-9~~-------------------------------|
G|-----------------------------------|
D|-----------------------------------|
A|-7~~-------------------------------|
E|-----------------------------------|            
Submit corrections


        Champions Acoustic lessons Hard to play? Try these video lessons and learn fast Champions Acoustic lessons
        
↑ Back to top | Tablatures and chords for acoustic guitar and electric guitar, ukulele, drums are parodies/interpretations of the original songs. You may use it for private study, scholarship, research or language learning purposes only