» » »

James - Knight Of Arms Tabs

Artists:  A B C D E F G H I J K L M N O P Q R S T U V W X Y Z # 

Knight Of Arms Tabs

(ver. 1) Click to play this song!
James
 Rating:
4/5 (4 votes)
                -------------------------------------------------------------------------------
-------------------------------------------------------------------------------

Tuning: 6E 5A 4D 3G 2B 1e

Song Played With Reverb Effect And Sound Effects Volume Turned up full.

well to play this song you need to know how to tremelo pick so if you dont well you will 
to learn so yo can play this song.

Intro x4
e|--------------------------------------------------------------------------|
B|--------------------------------------------------------------------------|
G|--------------------------------------------------------------------------|
D|--------------------------------------------------------------------------|
A|--------------------------------------------------------------------------|
E|-12~-13~-12~-13~----------------------------------------------------------|


All Notes Are Tremelo Picked
e|--------------------------------------------------------------------------|
B|--------------------------------------------------------------------------|
G|--------------------------------------------------------------------------|
D|--------------------------------------------------------------------------|
A|--------------------------------------------------------------------------|
E|-12--10--12--10--7--9--7--9--12--10--12--10--7--9--7--9-------------------|

All Notes Are Tremelo Picked
e|--------------------------------------------------------------------------|
B|--------------------------------------------------------------------------|
G|--------------------------------------------------------------------------|
D|-12--10--12--10--7--9--7--9--12--10--12--10--7--9--7--9-------------------|
A|--------------------------------------------------------------------------|
E|--------------------------------------------------------------------------|


All Notes Are Tremelo Picked
e|--------------------------------------------------------------------------|
B|--------------------------------------------------------------------------|
G|--------------------------------------------------------------------------|
D|--------------------------------------------------------------------------|
A|--------------------------------------------------------------------------|
E|-12--10--9--7--5--3--1--0-------------------------------------------------|

Notes Not Tremelo Picked
e|--------------------------------------------------------------------------|
B|--------------------------------------------------------------------------|
G|--------------------------------------------------------------------------|
D|--------------------------------------------------------------------------|
A|-12--10--7--9--7-5h7-12--10--7--9--3-1h3--5-7-----------------------------|
E|--------------------------------------------------------------------------|

Notes Not Tremelo Picked
e|--------------------------------------------------------------------------|
B|-12-12-12-12--9-9-9-9--7-7-7-7--9-9-9-9--5-5-5-5--1-1-1-1--3-3-3-3--5-5-5-|
G|--------------------------------------------------------------------------|
D|--------------------------------------------------------------------------|
A|--------------------------------------------------------------------------|
E|--------------------------------------------------------------------------|

Notes Tremelo Picked
e|-12--10--12--10--7--9--7--9--12--10--12--10--7--9--7--9-------------------|
B|--------------------------------------------------------------------------|
G|--------------------------------------------------------------------------|
D|--------------------------------------------------------------------------|
A|--------------------------------------------------------------------------|
E|--------------------------------------------------------------------------|

Notes Tremelo Picked
e|--------------------------------------------------------------------------|
B|--------------------------------------------------------------------------|
G|--------------------------------------------------------------------------|
D|--------------------------------------------------------------------------|
A|-12--10--12--10--7--9--7--9--12--10--12--10--7--9--7--9-------------------|
E|--------------------------------------------------------------------------|

Notes Tremelo Picked
e|-12--10--9--7--5--3--1--0-------------------------------------------------|
B|--------------------------------------------------------------------------|
G|--------------------------------------------------------------------------|
D|--------------------------------------------------------------------------|
A|--------------------------------------------------------------------------|
E|--------------------------------------------------------------------------|


Chorus x2
e|--------------------------------------------------------------------------|
B|--------------------------------------------------------------------------|
G|-------1------------------------------------------------------------------|
D|-2-----2------------------------------------------------------------------|
A|-2--2--2------------------------------------------------------------------|
E|-0--3--0------------------------------------------------------------------|

notes not tremelo picked
Bridge
e|-10--12-|
B|---11---|
G|--------|  x4
D|--------|
A|--------|
E|--------|

e|-10-----|
B|---11---|
G|-----10-|  x4
D|--------|
A|--------|
E|--------|

e|-----12-|
B|---11---|
G|-10-----|  x4
D|--------|
A|--------|
E|--------|

e|-12-----|
B|---11-10|
G|--------|  x4
D|--------|
A|--------|
E|--------|

Bridge again

Solo x2
All Notes Are Tremelo Picked
e|--------------------------------------------------------------------------|
B|--------------------------------------------------------------------------|
G|-14--16--12--9--12--14--16--14--16--12--9--12--9--12--0-------------------|
D|--------------------------------------------------------------------------|
A|--------------------------------------------------------------------------|
E|--------------------------------------------------------------------------|

Outro
All Notes Are Tremelo Picked
e|--------------------------------------------------------------------------|
B|--------------------------------------------------------------------------|
G|--------------------------------------------------------------------------|
D|--------------------------------------------------------------------------|
A|--------------------------------------------------------------------------|
E|-12-----1--12-----1-------------------------------------------------------|

e|-12-----1--12-----1-------------------------------------------------------|
B|--------------------------------------------------------------------------|
G|--------------------------------------------------------------------------|
D|--------------------------------------------------------------------------|
A|--------------------------------------------------------------------------|
E|--------------------------------------------------------------------------|

e|--------------------------------------------------------------------------|
B|--------------------------------------------------------------------------|
G|--------------------------------------------------------------------------|
D|--------------------------------------------------------------------------|
A|--------------------------------------------------------------------------|
E|-12---10---9---7---5---3---1---0------------------------------------------|

e|--------------------------------------------------------------------------|
B|--------------------------------------------------------------------------|
G|--------------------------------------------------------------------------|
D|--------------------------------------------------------------------------|
A|--------------------------------------------------------------------------|
E|-12~----------------------------------------------------------------------|

| h  hammer-on
| ~  vibrato
===============================================================================
            
Submit corrections

↑ Back to top | Tablatures and chords for acoustic guitar and electric guitar, ukulele, drums are parodies/interpretations of the original songs. You may use it for private study, scholarship, research or language learning purposes only