» » »

Jam - David Watts Bass

Artists:  A B C D E F G H I J K L M N O P Q R S T U V W X Y Z # 

David Watts Bass

(ver. 1) Click to play this song!
Jam
 Rating:
4/5 (4 votes)


 David Watts lessons Tabs too difficult? Try these video lessons and learn fast
 
                THE JAM - DAVID WATTS

MAIN RIFF

"Ba ba ba ba ba, ba ba baaa"
G--------------------|
D---7-7-7-7-7-7-777--|
A--5-5-5-5-5-5-5-----|
E--------------------|

"And I wish I could have what he has got, OI!"
G--------------------|
D--555555557-5-7-----|
A--------------------|
E--------------------|

"Wish I could be like David Watts."
G--------------------|
D--------------------|
A-0000000000000000---|
E--------------------|

"Wish I could like, like David Watts."
G--------------------|
D--------------------|
A--7777777777777777--|
E--------------------|

"Wish I could be like David Watts."
G--------------------|
D--------------------|
A-0------------------|
E--------------------|


"When I lie on my pillow at night..."

and

"All the girls in the neighbourhood..."
G------------------------------------|
D--4-(x16)---------------------------|
A---------2-(x16)-7-(X16)-0----------|
E------------------------------------|

END

G--------------------|
D---7-7-7-7-7-7-777--|
A--5-5-5-5-5-5-5-----|
E--------------------| ...until fade.
            
Submit corrections



        David Watts lessons Hard to play? Try these video lessons and learn fast David Watts lessons
        
↑ Back to top | Tablatures and chords for acoustic guitar and electric guitar, ukulele, drums are parodies/interpretations of the original songs. You may use it for private study, scholarship, research or language learning purposes only