» » »

Jam - Butterfly Collector Bass

Artists:  A B C D E F G H I J K L M N O P Q R S T U V W X Y Z # 

Butterfly Collector Bass

(ver. 1) Click to play this song!
Jam
 Rating:
3.4/5 (5 votes)


 Butterfly Collector lessons Tabs too difficult? Try these video lessons and learn fast
 
                
Verse 1:

   G|----------------------------------|
   D|----------------------------------|
   A|----------------------------------|
   E|----------------------------------|

   G|----------------------------------|----------------------------------|
   D|----------------------------------|----------------------------------|
   A|----------------------------------|----------------------------------|
   E|----------------------------------|----------------------------------|
So....................................................................line

   G|----------------------------------|
   D|----------------------------------|
   A|----------------------------------|
   E|----------------------------------|

   G|----------------------------------|----------------------------------|
   D|----------------------------------|----------------------------------|
   A|----------------------------------|----------------------------------|
   E|----------------------------------|----------------------------------|
And................................................................climber

   G|----------------------------------|
   D|----------------------------------|
   A|--------------------------------5-|
   E|----------------------------------|

   G|----------------------------------|----------------------------------|
   D|----------------------------------|----------------------------------|
   A|-7----------------2---------------|-------2---------------2--------5-|
   E|----------------------------------|-5---------------5----------------|
And.................................................................collector

   G|-----------------|-----------------|
   D|-----------------|-----------------|
   A|-7------10/12\10-|-7---------------|
   E|-----------------|-----------------|

Chorus:

   G|----------------------------------|
   D|----------------------------------| X4
   A|-----------3---3---5---5----------|
   E|---3---3-------------------3---3--|
      There's...................more
      You're....................minds
      And.......................pride
      It's......................pillowcase

   G|-----------------|
   D|-----------------|
   A|-----------7---9-|
   E|-3---------------|
 That thrills you

Verse 2:

   G|----------------------------------|
   D|----------------------------------|
   A|-7--------------------------------|
   E|----------------------------------|

   G|----------------------------------|----------------------------------|
   D|----------------------------------|----------------------------------|
   A|----------------------------------|----------------------------------|
   E|----------------------------------|----------------------------------|
And................................................................perfume

   G|----------------------------------|
   D|----------------------------------|
   A|--------------------------------5-|
   E|-------------3/5\3-0--------------|

   G|----------------------------------|----------------------------------|
   D|----------------------------------|----------------------------------|
   A|-7--------------0-2---------------|---5---2-------5---5---2--------5-|
   E|--------------------------------5-|-5---5-----------5---5------------|
But.............................................................collectors

   G|----------------------------------|
   D|----------------------------------|
   A|-7------10/12\10---7--------------|
   E|----------------------------------|

Chorus:

   G|----------------------------------|
   D|----------------------------------| X4
   A|-----------3---3---5---5----------|
   E|---3---3-------------------3---3--|
      As........................know
      You.......................sew
      You.......................head
      But.......................legs

   G|-----------------|
   D|-----------------|
   A|-----------7---9-|
   E|-3---------------|
  Has worn off

Verse 3:

   G|----------------------------------|
   D|----------------------------------|
   A|-7--------------------------------|
   E|----------------------------------|

   G|----------------------------------|----------------------------------|
   D|----------------------------------|----------------------------------|
   A|----------------------------------|----------------------------------|
   E|----------------------------------|----------------------------------|
And.................................................................anyway

   G|----------------------------------|
   D|----------------------------------|
   A|--------------------------------5-|
   E|-------------3/5\3-0--------------|

   G|----------------------------------|----------------------------------|
   D|----------------------------------|----------------------------------|
   A|-7----------------2---------------|--------2-----------------2-----5-|
   E|----------------------------------|-5---------------5----------------|
And.............................................................collectors

   G|----------------------------------|
   D|----------------------------------|
   A|-7------10/12\10---7--------------|
   E|----------------------------------|

Chorus:

   G|----------------------------------|
   D|----------------------------------| X4
   A|-----------3---3---5---5----------|
   E|---3---3-------------------3---3--|
      There's...................more
      You're....................minds
      And.......................pride
      It's......................pillowcase

   G|----------------------------------|
   D|----------------------------------|
   A|-----------7---9--5---5---5---5---|
   E|-3--------------------------------|
 That thrills you

   G|----------------------------------|
   D|----------------------------------| X4
   A|-----------3---3---5---5----------|
   E|---3---3-------------------3---3--|
      As........................know
      You.......................sew
      You.......................head
      But.......................legs

   G|-----------------|
   D|-----------------|
   A|-----------7---9-|
   E|-3---------------|
 That thrills you

Outro:

   G|----------------------------------|
   D|----------------------------------|
   A|-7--------------------------------|
   E|----------------------------------|

   G|----------------------------------|----------------------------------|
   D|----------------------------------|----------------------------------|
   A|----------------------------------|----------------------------------|
   E|----------------------------------|----------------------------------|
And.............................................................collectors

   G|----------------------------------|
   D|----------------------------------|
   A|-7------10/12\10---7--------------|
   E|----------------------------------|

Lyrics:

   So you finally got what you wanted
   You've achieved your aim by making me walk in line
   And when you just can't get any higher
   You use your senses to suss out this week's climber
   And the small fame that you've acquired
   Has brought you into cult status but to me you're still a collector

   There's tarts and whores but you're much more
   You're a different kind 'cause you want their minds
   And you just don't care 'cause you've got no pride
   It's just a face on your pillowcase
   That thrills you

   And you started looking much older
   And your fashion sense is second rate like your perfume
   But to you in your own little dream world
   You're still the Queen of the butterfly collectors

   As you carry on 'cause it's all you know
   You can't light a fire, you can't cook or sew
   You get from day to day by filling your head
   But surely you must know the appeal between your legs
   Has worn off

   And I don't care about morals
   'Cause the world's insane and we're all to blame anyway
   And I don't feel any sorrow
   Towards the Kings and Queens of the butterfly collectors

   There's tarts and whores but you're much more
   You're a different kind 'cause you want their minds
   And you just don't care 'cause you've got no pride
   It's just a face on your pillowcase
   That thrills you
   
   As you carry on 'cause it's all you know
   You can't light a fire, you can't cook or sew
   You get from day to day by filling your head
   But surely you must know the appeal between your legs
   Has worn off

   And I don't feel any sorrow
   Towards the Kings and Queens of the butterfly collectors
            
Submit corrections



        Butterfly Collector lessons Hard to play? Try these video lessons and learn fast Butterfly Collector lessons
        
↑ Back to top | Tablatures and chords for acoustic guitar and electric guitar, ukulele, drums are parodies/interpretations of the original songs. You may use it for private study, scholarship, research or language learning purposes only