» » »

Jam - Beat Surrender Bass

Artists:  A B C D E F G H I J K L M N O P Q R S T U V W X Y Z # 

Beat Surrender Bass

(ver. 1) Click to play this song!
Jam
 Rating:
4/5 (4 votes)

 Beat Surrender lessons Tabs too difficult? Try these video lessons and learn fast
 
                

I didn't want to be a stingy a**hole and keep this tab to myself so go forward and make
Bruce Foxton proud! plus this is my first tab! any mistake let me know, i will fix them 
right away.

Long live the Jam!

@georgexiv

(editors note, the x's at the end was suppose to have a number of how many times it's
played but i got lazy and didn't want to count...so yeah)

                   Intro
G|------------------------|----------------|
D|------------------------|-5-4-2----------|
A|------------------------|-------5-3-2----|
E|5-5-5-5-3-3-3-3-2-2-2-2-|-------------5-3|

G|------------------------|----------------|------------------------|
D|------------------------|-5-4-2----------|------------------------|
A|------------------------|-------5-3-2----|------------------------|
E|5-5-5-5-3-3-3-3-2-2-2-2-|-------------5-3|5-5-5-5-5-5-5-5-5-5-5-5-|

Verse
G|----------------------|---------------|-----------7-6--|
D|-------4-4-4-5-7-5-4--|---------------|-------4-4------|
A|-5-5-7----------------|-7-5-----4-5---|-7-5-7----------|
E|----------------------|-----5-7-------|----------------|

G|---------------------------------------|---4-7-----6------------|
D|-7-5-4---------------5(x7)-3(x7)-2(x7)-|-5-----4-7--------7(x7)-|
A|-------7-5---4-7-4---------------------|-------------5(x7)------|
E|-----------5----------------------5(x7)|------------------------|

chorus
G|------------------------|----------------|
D|------------------------|-5-4-2----------|
A|------------------------|-------5-3-2----|
E|5-5-5-5-3-3-3-3-2-2-2-2-|-------------5-3|

G|------------------------|----------------|------------------------|
D|------------------------|-5-4-2----------|------------------------|
A|------------------------|-------5-3-2----|------------------------|
E|5-5-5-5-3-3-3-3-2-2-2-2-|-------------5-3|5-5-5-5-5-5-5-5-5-5-5-5-|


Verse
G|----------------------|---------------|-----------7-6--|
D|-------4-4-4-5-7-5-4--|---------------|-------4-4------|
A|-5-5-7----------------|-7-5-----4-5---|-7-5-7----------|
E|----------------------|-----5-7-------|----------------|

G|---------------------------------------------|---4-7-----6------------|
D|-7-5-4---------------5(x7)-3(x7)-10(x7)-9(x7)|-5-----4-7--------------|
A|-------7-5---4-7-4---------------------------|-------------5--16s5----|
E|-----------5---------------------------------|------------------------|

chorus
G|------------------------|----------------|
D|------------------------|-5-4-2----------|
A|------------------------|-------5-3-2----|
E|5-5-5-5-3-3-3-3-2-2-2-2-|-------------5-3|

G|------------------------|----------------|------------------------|
D|------------------------|-5-4-2----------|------------------------|
A|------------------------|-------5-3-2----|------------------------|
E|5-5-5-5-3-3-3-3-2-2-2-2-|-------------5-3|5-5-5-5-5-5-5-5-5-5-5-5-|

There's no passion
G|---6--6--6--6--6--6--8--9--|---------------------|
D|---------------------------|--7--7--7--7--7------|
A|-4--4--4--4--4--4--6--7----|---------------------|
E|---------------------------|-5--5--5--5--5--7-8--|

G|---6--6--6--6--6--6--8--9--|-------------------14--13--11--9|
D|---------------------------|--7--7--7--7--7-----------------|
A|-4--4--4--4--4--4--6--7----|-----------------12--11--9--7---|
E|---------------------------|-5--5--5--5--5------------------|

G|---6--6--6--6--6--6--8--9--|---------------------|
D|---------------------------|--7--7--7--7--7------|
A|-4--4--4--4--4--4--6--7----|---------------------|
E|---------------------------|-5--5--5--5--5--7-8--|

G|---6--6--6--6--6--6--8--9-----------|
D|------------------------------------|
A|-4--4--4--4--4--4--6--7-------------|
E|---------------------------5-5-5-5-5|

G|---------------------------------------|
D|------------------4-4-4-5-7-5-4--------|
A|-7s9-7-7s13-5-5-7---------------7-5----|
E|------------------------------------5-7|

G|-------------------7-6-------------------|-------------------------|
D|------------4-4-4-----7-5-4--------------|-------------------------|
A|4-5-7-5-5-7-----------------7-5---4-7-4--|-5(x5)-3(x5)-10(x5)-9(x5)|
E|--------------------------------5--------|-------------------------|

G|---4-7-----6-------------|
D|-5-----4-7---------------|
A|--------------5(x7)------|
E|-------------------17(x7)|

Final/outro
G|----------------|----------------|------------------------|
D|----------------|----------------|------------------------|
A|----------------|----------------|------------------------|
E|-5-3-2-0--------|-5-3-2-0--------|-5(x)-3(x)-2(x)-0(x)----|


G|--------------------------|------------------------|
D|--------------------------|------------------------|
A|--------------------------|----------5(x)-7(x)-----|
E|-5(x)-3(x)-2(x)s12--------|-5(x)-7(x)-----------7-5|
            
Submit corrections


        Beat Surrender lessons Hard to play? Try these video lessons and learn fast Beat Surrender lessons
        
↑ Back to top | Tablatures and chords for acoustic guitar and electric guitar, ukulele, drums are parodies/interpretations of the original songs. You may use it for private study, scholarship, research or language learning purposes only