Home » J » Jake Bugg »

Jake Bugg - Tuesday Morning Tabs

Artists:  A B C D E F G H I J K L M N O P Q R S T U V W X Y Z # 

Tuesday Morning Tabs

(ver. 1) Click to play this song!
Jake Bugg
 Rating:
4.3/5 (16 votes)
                [Intro]

e|---------------------------------------------------------------------------|
B|---------------------------------------------------------------------------|
G|---------------------------------------------------------------------------|
D|---0h2---2--0--------------------------------------------------------------|
A|---------------0h2---2--0-----0--0--2--------------------------------------|
E|---------------------------3-----------------------------------------------|

e|---------------------------------------------------------------------------|
B|---------------------------------------------------------------------------|
G|---------------------------------------------------------------------------|
D|---0--0h2---2--0-----------------------------------------------------------|
A|------------------0h2--2--0------------------------------------------------|
E|-----------------------------3--2--0---------------------------------------|            
Submit corrections

↑ Back to top | Tablatures and chords for acoustic guitar and electric guitar, ukulele, drums are parodies/interpretations of the original songs. You may use it for private study, scholarship, research or language learning purposes only